Log in

One click and you are in

Login with Facebook Login with Google

Why sign up and log in

Guitar Tabs Explorer
Charlie Puth bass tabs for Girlfriend

Bass tabs

Tuning: Standard (E A D G)


Verse 1:

G|----------------------------------------------------------------------------|
D|--------------------6------------------------3------------------------------|
A|-------------------------------------3--------------------------------------|
E|-4---2-----4---2-----4---2----2--4-6---2---1---1----------------------------|

G|----------------------------------------------------------------------------|
D|--------------------6------------------------3------------------------------|
A|-------------------------------------3--------------------------------------|
E|-4---2-----4---2-----4---2----2--4-6---2---1---1----------------------------|
Pre-Chorus:

G|----------------------------------------|
D|--------------------6-------------------|
A|----------------------------------------|
E|-4---2-----4---2-----4---2--------------|


Chorus:

G|-----------------------------------------------------------------------------|
D|-------------------P4---6----------------------------3-----------------------|
A|-------------------------6-------------------3-------------------------------|
E|-4---2-----4---2-----------4---2----2-1--4-6---2---1---1-1-------------------|

G|-----------------------------------------------------------------------------|
D|-------------------P4---6----------------------------3-----------------------|
A|-------------------------6-------------------3-------------------------------|
E|-4---2-----4---2-----------4---2----2-1--4-6---2---1---1-1-------------------|


Verse 2:


G|-----------------------------------------------------------------------------|
D|-----------------------------------------------------3-----------------------|
A|---------------------------------------------3-------------------------------|
E|---------------------------4---2----2-1--4-6---2---1---1---------------------|

G|-----------------------------------------------------------------------------|
D|-------------------P4---6----------------------------3-----------------------|
A|-------------------------6-------------------3-------------------------------|
E|-4---2-----4---2-----------4---2----2-1--4-6---2---1---1-1-------------------|


Pre-Chorus:

G|------------------------------------------------|
D|-------------------P4---6-------------------3---|
A|-------------------------6----------------------|
E|-4---2-----4---2-----------4---2--------------1-|



Chorus:

G|-----------------------------------------------------------------------------|
D|-------------------P4---6----------------------------3-----------------------|
A|-------------------------6-------------------3-------------------------------|
E|-4---2-----4---2-----------4---2----2-1--4-6---2---1---1-1-------------------|

G|-----------------------------------------------------------------------------|
D|-------------------P4---6----------------------------3-----------------------|
A|-------------------------6-------------------3-------------------------------|
E|-4---2-----4---2-----------4---2----2-1--4-6---2---1---1-1-------------------|



Outro:

G|-----------------------------------------------------------------------------|
D|-------------------P4---6----------------------------3-----------------------|
A|-------------------------6-------------------3-------------------------------|
E|-4---2-----4---2-----------4---2----2-1--4-6---2---1---1-1-------------------|

G|-----------------------------------------------------------------------------|
D|-------------------P4---6----------------------------------------------------|
A|-------------------------6-------------------3-------------------------------|
E|-4---2-----4---2-----------4---2----2-1--4-6---2-----------------------------|


************************************

| P  Pop

************************************

Almost there ...

Sign in to get your own page with links to favourite songs and more. You are just one click away...

Login with Facebook Login with Google