Log in

One click and you are in

Login with Facebook Login with Google

Why sign up and log in

Guitar Tabs Explorer
Charlie Puth guitar tabs for Change

Intro

Tuning: Standard (E A D G B E)


Intro:

e|-----------------------------------------------------------------------|
B|-----------------------------------------------------------------------|
G|---------------4--------------------4----------2-----------------------|
D|--------2--------------------2-----------------------------------------|
A|--0--------------------------------------------------------------------|
E|----------------------4------------------------------------------------|

e|----------------------2------------------------------------------------|
B|------------------0----------------------------------------------------|
G|-------1h2-------------------------------4--------------------4--------|
D|----------------------------------2---------------------------2--------|
A|---------------------------0--------------------0----------------------|
E|--2----------0-----------------------------------------4---------------|

e|--------------------0--------------------------------------------------|
B|-----------------------------------------------------------------------|
G|--------1----2--------------2------------------------------------------|
D|-----------------------------------------------------------------------|
A|-----------------------------------------------------------------------|
E|--2-----------------0--------------------------------------------------|


************************************

h   Hammer-on

************************************

Other versions of Change

ChangeChords

Almost there ...

Sign in to get your own page with links to favourite songs and more. You are just one click away...

Login with Facebook Login with Google