Guitar Tabs Explorer
Charlie Puth guitar tabs for Attention (Ver. 2)

Attention tab


2.5 / 5 [6 votes]

Attention tab by Charlie Puth (Ver. 2)

Guitar tabs

Print

Hey it's Jess with Attention - Charlie Puth.
This was requested by neil.alo15 Shout-out to him!
This is Andrew Foy's arrangement not mine. Go check him out!
https://www.youtube.com/watch?v=9ygrq7in_uI

Intro:
 e|-----------------------------3/5\3----------0------------------------------|
B|-----------6-5-----------3-5-----------1------3-1---------1-3--------------|
G|------7--------7-------5-------------0---0--------0-----3------------------|
D|----7---7--------7---5--------------------------------3--------------------|
A|--5----------------3---------------0----------------1---------x------------|
E|--------------------------------------------------------------x------------|

Verse:
e|---------------------------------------------------------------------------|
B|---------------------------------------------------------------------------|
G|------5/7---5-5--------------------------------7-7-7---5-5-5---------------|
D|--0-0-----------7-7---5-5-5-3---5-5/7----x-------------------7-7-7---5-7---|
A|--------------------------3---3-------5--x-5-5-----------------------------|
E|------0---0-----0---0--------------------x-----7-----7-------7-----7-------|

e|---------------------------------------------------------------------------|
B|---------------------------------------------------------------------------|
G|----------5-5h7------------------------------------------------------------|
D|--7-5---7-------------12-12-12----10-10-10----------5-3---5-5/7-----x------|
A|-------------------------------------------12----10-3---3-------2/5-x------|
E|--8---8---------10-11-12-------12----------12-12--------------------x------|

e|---------------------------------------------------------------------------|
B|------------------------------------------8/10-8h10p8p6-5------------------|
G|------7-7-7---5-5-5---------------------5-----------------7-----7-9-9h10p9-|
D|--------------------7-7-7---5-7-7-5---7---------------------7--------------|
A|--5-5----------------------------------------------------------------------|
E|------7-----7-------7-----7-----8---8---------------------0---0------------|
                                                            o
e|---------------------------------------------------------------------------|
B|--------------3-3h5--8p6-8-6-8---6-8-6-8--8h10-----------------------------|
G|--p7--------5---------------------------------------4/7-----------x--------|
D|----7---5--------------------------------------8-10-------------x----------|
A|------3---3--------------x------------------------------------x------------|
E|---------------------7---x-----7----------8-----------------x--------------|

e|---------------------------------------------------------------------------|
B|-------------------------------3-3h5-3--9p7-9---7-9---7-9----7-9-b9--------|
G|--------7-9h10p9p7-7---------5---------------------------------------------|
D|----7----------------7---5-------------------------------------------------|
A|-----------------------3---3------------------x-----------x----------------|
E|--0---0---------------------------------8-----x-----8-----x------8---------|

e|---------------------------------------------------------------------------|
B|--8t10p8\6/5---------------------------------------------------------------|
G|---------------------------------------------------------------------------|
D|---------------------------------------------------------------------------|
A|---------------------------------------------------------------------------|
E|---------------------------------------------------------------------------|

Chorus:
    o         o           o         o           o                    o
e|------------5-3-------3-3---------3-1-0-1-----3-3---0-0----------3-1--------|
B|--5-3---------------6-------------------------1-1---1-1-3-3--3--------------|
G|----------------------------------------------0-0---0-0-0-0--0--------------|
D|------------------x---------x-----------x-----------x-x------x-x-x-----x----|
A|----5-x-3h5-----3-x-----0-3-x-1h3-----0-x-----0---0-x-x-0--0-x-x-x-1-1-x-0h1|
E|--0---x-----------x---------x-----------x-----------x-x------x-x-x-----x----|
    o   o   o       o         o         o        o                   o
e|--5-3-------------5-3-----3-3---------3-1-0--1-3-3---0-0---------3-1--------|
B|------6-5-5-3-----------6----------------------1-1---1-1-3-3---3------------|
G|----3---5--------------------------------------0-0---0-0-0-0---0------------|
D|--------------------------------x-----------x--------x-x-------x-------x----|
A|--1---3-----5-3h5-----3-----0-3-x-1h3-----0-x--0---0-x-x-0---0-x---1-1-x-0h1|
E|----------0---------------------x-----------x--------x-x-----x-x-------x----|
    o   o
e|---------------------------------------------------------------------------|
B|---------------------------------------------------------------------------|
G|----3---6------------------------------------------------------------------|
D|---------------------------------------------------------------------------|
A|--1---3--------------------------------------------------------------------|
E|---------------------------------------------------------------------------|

Verse:
                              o
e|------------------------------------------x---------------------------------|
B|------------------------------------------x---------------------------------|
G|--4/7-7-7-5-5-5---------------------------x-----7-7-7---5-5-----------------|
D|----------------7-7-7-5-5-5-5-3---5-5/7---x-------------x---7-7-7---5-7-----|
A|----------------------x-----3---3-------5-x-5-5---------x-----------x-------|
E|--0-------0-----0-----x-------------------x-----7-----7-x---7-----7-x-------|

e|----------------------------------------------------------------------------|
B|-------------------3-3-3-----5-5-5---6-6-6---8-8-8-8h10-8-6-8-3h5p3---------|
G|--------5-5h7------2-2-2-----5-5-5---7-7-7---9-9-9------------------5---5---|
D|--7-5-7-----x--------------x------------------------------x-----------x-----|
A|------------x--------------x------------------------------x-----------x-----|
E|--8---------x-9-10-0-----0-x-------0-------0-------10-----x-----------x-----|
                                      o
e|----------------------------------------------------------------------------|
B|----------------------------------------------------------------------------|
G|--5/7-7-7-----5-5-5-------------------------5-----2h3p2-------7-9-9h10p9p7--|
D|----------x---x-------5/7-7-7---5-7-7-5---7---3-6---------4/7-x-------------|
A|--0-------x-0-x-----0---------0-x---------x-------------------x-------------|
E|----------x---x-----------------x---8---8-x-------------0-----x------------|
                                                          o
e|--------------------------------------------------------------------x-------|
B|------------3-3h5p3--8p6-8-6-8---6-8---6-8-8/10-------------------x---------|
G|----------5---------------------------------------5-5h7---------x-----------|
D|--7---5---x---x----------x-----------x----------8-------------x-------------|
A|----3---3-x---x----------x-----------x----------------------x---------------|
E|----------x---x------7---x-----7-----x-----8--------------x-----------------|

e|----------------------------------------------------------------------------|
B|------------------------------3-3h5p3----8p6-8---6-8---6-8---6-8-b9---------|
G|-------7-9-9h10p9p7---------5-----------------------------------------------|
D|---7----------------7---5-------------x--------x-----------x----------------|
A|----------------------3---3-----------x--------x-----------x----------------|
E|--0--0--------------------------------x--7-----x-----7-----x-----8----------|

Chorus:
                o         o         o         o        o                   o
e|------------------------5-3-----3-3---------3-1--0-1-3-3---0-0---------3-1--|
B|--8-t10p8\6\5-5-3-------------6----------------------1-1---1-1-3-3---1------|
G|-----------------------------------------------------0-0---0-0-0-0---0------|
D|------------------x-----------x-------x--------------------x-x-------x------|
A|----------------5-x-3h5-----3-x---0-3-x-1h3-----0----0---0-x-x-0---0-x---1-1|
E|--------------0---x-----------x-------x--------------------x-x-------x------|
          o   o   o         o         o         o         o                   o
e|--------5-3---------------5-3-----3-3---------3-1---0-1-3-3---0-0---------3-1|
B|------------6-5-5-3-------------6-----------------------1-1---1-1-3-3---1----|
G|----------3---5-----------------------------------------0-0---0-0-0-0---0----|
D|--x-----------------x-----------x-------x---------------------x-x-------x----|
A|--x-0h1-1---3-----5-x-3h5-----3-x---0-3-x-1h3-----0-----0---0-x-x-0---0-x---1-1|
E|--x-------------0---x-----------x-------x---------------------x-x-------x-----

Bridge:

e|---------------------------------------------------------------------------|
B|--3/10-8h10p8--------3/10-10-10-10-------3/10-10-10----10---10-10-10-------|
G|--------------10-9---2/7--7--7--7--------2/7--7--7-----7----7--7--7--------|
D|---------------------------------------x------x-----------x-----------x----|
A|---------------------------------------x------x-----------x-----------x----|
E|-------------------0------0-----0---0--x------x-----10----x-----------x----|
                                                                o    o
e|---------------------------------------------------------------------------|
B|-------------10----10-10-10---10---10-----10-10---10----10-10--------------|
G|-------------7-----7--7--7----7----7------7--7----7-----7---7--------------|
D|-----------------x---------------x----x---------------x---------8----10----|
A|-----------------x---------------x----x---------------x--------------------|
E|--3/10-9-8-7-----x----------7----x----x-8-------8-----x-------8---10-------|

e|---------------------------------------------------------------------------|
B|----3/10--10-10---10-10---3/10-10------10-10----10-10---------------10-----|
G|----2/7---7--7----7--7----2/7--7-------7--7-----7---7----------------7-----|
D|--------x-x-----x-------x---------x-------------0------x---------------x---|
A|--------x-x-----x-------x---------x-------------x------x---------------x---|
E|--0-----x-x--0--x-0-----x---------x-10-------10-x---10-x-3/10-9-8-7----x---|

e|---------------------------------------------------------------------------|
B|--10-10-10--10---10---10-10--10---10---3/10-8h10p8----------3-3h5----------|
G|--7--7--7---7----7----7--7---7----7----------------10-9---5----------------|
D|--------------------x-----------------------------------5------------------|
A|--------------------x------------------------------------------------------|
E|----------7----7----x------8----8----8-------------------------------------|

e|---------------------------------------------------------------------------|
B|--8p6-8-6-8-6-8-6-8-8/10------------------------------------------3-3h5----|
G|------------------------------7-7-9-10-----7-9-9h10p9p7---------5----------|
D|-------------------------8-10----------7----------------7---5-------------x|
A|----------------------------------------------------------3---3-----------x|
E|-------------------------------------0---0--------------------------------x|

e|---------------------------------------------------------------------------|
B|--8p6-8---6-8---6-8-6-8-b9-------------------------------------------------|
G|---------------------------------------------------------------------------|
D|--------x------------------------------------------------------------------|
A|--------x------------------------------------------------------------------|
E|--7-----x-----7---------8--3/12p-------------------------------------------|

Chorus:
               o         o         o         o        o                   o
e|------------------------5-3-----3-3---------3-1--0-1-3-3---0-0---------3-1-|
B|--8-t10p8\6\5-5-3-------------6----------------------1-1---1-1-3-3---1-----|
G|-----------------------------------------------------0-0---0-0-0-0---0-----|
D|------------------x-----------x-------x--------------------x-x-------x-----|
A|----------------5-x-3h5-----3-x---0-3-x-1h3-----0----0---0-x-x-0---0-x---1-1|
E|--------------0---x-----------x-------x--------------------x-x-------x-----|
          o   o   o         o         o         o         o                   o
e|--------5-3---------------5-3-----3-3---------3-1---0-1-3-3---0-0---------3-1|
B|------------6-5-5-3-------------6-----------------------1-1---1-1-3-3---1----|
G|----------3---5-----------------------------------------0-0---0-0-0-0---0----|
D|--x-----------------x-----------x-------x---------------------x-x-------x----|
A|--x-0h1-1---3-----5-x-3h5-----3-x---0-3-x-1h3-----0-----0---0-x-x-0---0-x---1-1|
E|--x-------------0---x-----------x-------x---------------------x-x-------x----|

e|---------------------------------------------------------------------------|
B|--3/10-8h10p8--------3/10-10-10-10-------3/10-10-10----10---10-10-10-------|
G|--------------10-9---2/7--7--7--7--------2/7--7--7-----7----7--7--7--------|
D|---------------------------------------x------x-----------x-----------x----|
A|---------------------------------------x------x-----------x-----------x----|
E|-------------------0------0-----0---0--x------x-----10----x-----------x----|

e|---------------------------------------------------------------------------|
B|-------------10----10-10-10---10---10-----10-10---10----10-10--------------|
G|-------------7-----7--7--7----7----7------7--7----7-----7---7--------------|
D|-----------------x---------------x----x---------------x---------8----10----|
A|-----------------x---------------x----x---------------x--------------------|
E|--3/10-9-8-7-----x----------7----x----x-8-------8-----x-------8---10-------|

e|---------------------------------------------------------------------------|
B|----3/10--10-10---10-10---3/10-10------10-10----10-10---------------10-----|
G|----2/7---7--7----7--7----2/7--7-------7--7-----7---7----------------7-----|
D|--------x-x-----x-------x---------x-------------0------x---------------x---|
A|--------x-x-----x-------x---------x-------------x------x---------------x---|
E|--0-----x-x--0--x-0-----x---------x-10-------10-x---10-x-3/10-9-8-7----x---|

e|---------------------------------------------------------------------------|
B|--10-10-10--10---10---10-10--10---10---3/10-8h10p8----------3--------------|
G|--7--7--7---7----7----7--7---7----7----------------10-9-7------------------|
D|--------------------x------------------------------------------------------|
A|--------------------x------------------------------------------------------|
E|----------7----7----x------8----8----8-------------------------------------|



************************************

| /  Slide up
| \  Slide down
| x  Dead note
| h  Hammer-on
| p  Pull-off
| b  Bend
| t  Tapping

Other versions of Attention

AttentionChords
Attention (Ver. 2)Chords
Attention (Ver. 4)Chords
Attention girl version point of youChords
Attention-(Ver. 3)Chords
Attention-(Ver. 5)Chords
Attention - introTabs

Comment this song and these guitar tabs

Do you have corrections, comments on the guitar tabs, thoughts about the song or a message to the author? Write them below.