Guitar Tabs Explorer
Charlie Puth bass tabs for Attention (Ver. 2)

Attention bass tab


3.8 / 5 [4 votes]

Jamplay guitar lessons

Attention bass tab by Charlie Puth (Ver. 2)

Bass tabs

Print

Submitted by stig
Tuning: C#G#C#F# or BEADG

There are two ways this song can be played. You can either play in standard tuning on a 5 string bass,
or you can tune down to Drop C# (Both tunings listed above). The
The line repeats throughout most of the song, with little to no variation.

Drop C#:
F#|--------------------------------------4-2h4-----4---0---5-4h5---5---7------|
C#|--2-0h2-----0h2------------------------------------------------------------|
G#|--------------------5-3h5---3h5-4-3-2---------2-------3-------3---5--------|
C#|2---------2-------0-------------------------------5------------------------|

Standard - 5 String:
G|------------------------------------3-1h3-----3-------4-3h4---4---6--------|
D|--------------------------------------------------4------------------------|
A|--6-4h6-----4h6-----2h4---2h4-3-2-1---------1-------2-------2---4----------|
E|----------6-------------------------------------2--------------------------|
B|4-----------------2--------------------------------------------------------|

************************************

| h   Hammer-on

Other versions of Attention

- AttentionBass tabs

Comment this song and these bass tabs

Do you have corrections, comments on the bass tabs, thoughts about the song or a message to the author? Write them below.