Log in

One click and you are in

Login with Facebook Login with Google

Why sign up and log in

Guitar Tabs Explorer
Purple Disco Machine bass tabs for Hypnotized

Bass tabs

Tuning: Standard (E A D G)


Verse: Feel buried alive ...

G|---4---4---4---4-------------------------------------------------------|
D|---------------------5---5---5---5-------------------------7---7---7---| 3x
A|-2---2---2---2---2---------------------5---5---5---5-------------------|
E|-------------------3---3---3---3---3-------------------5-5---5---5---5-|
B|-------------------------------------3---3---3---3---3-----------------|
G|---4---4---4---4---------------------------------------|
D|---------------------5---5---5---5---------------------|
A|-2---2---2---2---2---------------------5---5---5---5---|
E|-------------------3---3---3---3---3-------------------|
B|-------------------------------------3---3---3---3---3-|


Chorus: 'Cause I've been hypnotized by the lights ...

G|---4---4---4---4-------------------------------------------------------|
D|---------------------5---5---5---5-------------------------7---7---7---| 2x
A|-2---2---2---2---2---------------------5---5---5---5-------------------|
E|-------------------3---3---3---3---3-------------------5-5---5---5---5-|
B|-------------------------------------3---3---3---3---3-----------------|


Verse: So hold me tight ...

G|---4---4---4---4-------------------------------------------------------|
D|---------------------5---5---5---5-------------------------7---7---7---| 3x
A|-2---2---2---2---2---------------------5---5---5---5-------------------|
E|-------------------3---3---3---3---3-------------------5-5---5---5---5-|
B|-------------------------------------3---3---3---3---3-----------------|

G|---4---4---4---4---------------------|
D|---------------------5---5---5---5---|
A|-2---2---2---2---2-------------------|
E|-------------------3---3---3---3---3-|
B|-------------------------------------|


Chorus: 'Cause I've been hypnotized by the lights ...

G|---4---4---4---4-------------------------------------------------------|
D|---------------------5---5---5---5-------------------------7---7---7---| 4x
A|-2---2---2---2---2---------------------5---5---5---5-------------------|
E|-------------------3---3---3---3---3-------------------5-5---5---5---5-|
B|-------------------------------------3---3---3---3---3-----------------|


Bridge: Free falling from the high ...

  S P        S P        S P        S
G|---4---4---4---4-------------------------------------------------------|
D|---------------------5---5---5---5-------------------------7---7---7---|
A|-2---2---2---2---2---------------------5---5---5---5-------------------|
E|-------------------3---3---3---3---3-------------------5-5---5---5---5-|
B|-------------------------------------3---3---3---3---3-----------------|

  S P        S P        S P
G|---4---4---4---4---------------------------------------|
D|---------------------5---5---5---5---------------------|
A|-2---2---2---2---2---------------------5---5---5---5---|
E|-------------------3---3---3---3---3-------------------|
B|-------------------------------------3---3---3---3---3-|


Chorus: 'Cause I've been hypnotized by the lights ...

G|---4---4---4---4-------------------------------------------------------|
D|---------------------5---5---5---5-------------------------7---7---7---| 4x
A|-2---2---2---2---2---------------------5---5---5---5-------------------|
E|-------------------3---3---3---3---3-------------------5-5---5---5---5-|
B|-------------------------------------3---3---3---3---3-----------------|


**********
|    |
| S Slap |
| P Pop |
|    |
**********

Almost there ...

Sign in to get your own page with links to favourite songs and more. You are just one click away...

Login with Facebook Login with Google