Log in

One click and you are in

Login with Facebook Login with Google

Why sign up and log in

Guitar Tabs Explorer
Pulp tabs for Wickerman

Guitar tabs

PULP:   "Wickerman"
                     written by Cocker/Banks/Doyle/Mackey/Webber
>From the album: "we love Life"

Chords transcribed by: Christofakis Manos
                                    "Christofakis_manos@hotmail.com"


Ok. i feel that this is one of the best pulp songs ever. It's quite
difficult to tab out 'cause it's very orchestra-orientated. There is no
clear distinction between verse & chorus so i've worked with parts. It's
actually divided in 4 (i think) parts. i've done my best to it figure out
and i think i've done quite well with parts 1 and 4 but the 2 middle
parts... .no way! I'm gonna keep trying but any help would be greatly
appreciated. Please forgive any mistakes since I am an amature guitar
player. I Think it's played with a capo on the 1st fret but listen to it and
figure it out yourselves...


CAPO 1


INTRO & Part I


chords throughout Part I: A chord diagramA minorAm - A chord diagramC majorC - A chord diagramC/BC/B

Chords & fretNumbers relative to capo

  A chord diagramA minorAm                  A chord diagramC majorC         A chord diagramC/BC/B
E--------0-----------|---------------------------
B-----1----1--------|---------------------------
G-----2------2------|------0----------0---------
D-----2--------2----|----2----------0------0----
A--0-----------------|--3----------2------2------
E---------------------|---------------------------

"transition" riff:

E----------------------------------------------------
B----------------------------------------------------
G----------------------------------------------------
D----------------------------------------------------
A---3-2---------0-2-0---3-2---------0----------
E---------0-3-----------------0-3-----------------


E-----------------------------------------------------
B-----------------------------------------------------
G-----------------------------------------------------
D-----------------------------------------------------
A---3-2---------0-2-0----3-2-----0-------------
E---------0-3------------------3-------------------



At "...and the river flows on..." GUITAR 2 plays...


RIFF 2

E--5-5-5-5-5-5-5-5--3-2-2--3-2-3----------------
B---------------------------------------------------------
G---------------------------------------------------------     (X2)
D---------------------------------------------------------
A---------------------------------------------------------
E---------------------------------------------------------

E--8-8-8-8-8-8-8-8--7-5-5--7-5-7---------------
B--------------------------------------------------------
G--------------------------------------------------------     (X2)
D--------------------------------------------------------
A--------------------------------------------------------
E--------------------------------------------------------


Until....   "the place where we first met..."

----------------------------------------------------------------------------------------------------------------------
----------------------------------------------------------------------------------------------------------------------

PART II ( ) .... till ... " ...heartbraking child's ride outside..."
PART III  ( ) ... till "...never in a million years..."

----------------------------------------------------------------------------------------------------------------------
----------------------------------------------------------------------------------------------------------------------


PART IV

Chords: A chord diagramB minorBm - A chord diagramA augmentedA - A chord diagramD MajorD - A chord diagramE MajorE - A chord diagramG+G - A chord diagramF#F# - A chord diagramB minorBm - A chord diagramE MajorE - A chord diagramB minorBm - A chord diagramF#F# ....  repeat to the end

wherever the river may take us.. wherever it wants us to go...



                    .... Thanx Jarvis...

Almost there ...

Sign in to get your own page with links to favourite songs and more. You are just one click away...

Login with Facebook Login with Google