Log in

One click and you are in

Login with Facebook Login with Google

Why sign up and log in

Guitar Tabs Explorer
Pulp tabs for Party hard

Guitar tabs

This is just the lead part and I figured out myself it might not be right but it sounds
ok to me it's easier to hear the parts on the John Peel Session. Feel free to leave any
comments and stuff or suggestions. Live on.


Main Riff: I used to try very hard....

e----------------------------------|
B---------3-----1----3-----1-----1-|
G------2-----2-----2-----2---0h2---|
D----------------------------------|
A----------------------------------|
E----------------------------------|

Chord Break 1: Entertainment can sometimes be hard...

e----------------0-0-0-0--2-2-2-2-|
B---2-2-2-2-2-2--1-1-1-1--3-3-3-3-|
G---2-2-2-2-2-2--0-0-0-0--2-2-2-2-|
D---2-2-2-2-2-2--2-2-2-2--0-0-0-0-|
A---0-0-0-0-0-0--3-3-3-3----------|
E---------------------------------|
Chord Break 2: I don't need to hear...
e--1-1-1-1-1-1-1-1--3-3-3-3--5-5-5-5----------------------------------------|
B--1-1-1-1-1-1-1-1--3-3-3-3--5-5-5-5------------------5h7p5-----------------|
G--2-2-2-2-2-2-2-2--4-4-4-4--6-6-6-6--7b-7b-7b-7b-7b---------7-5-7b-7-7-----|
D--3-3-3-3-3-3-3-3--5-5-5-5--7-7-7-7----------------------------------------|
A--3-3-3-3-3-3-3-3--5-5-5-5--7-7-7-7----------------------------------------|
E--1-1-1-1-1-1-1-1--3-3-3-3--5-5-5-5----------------------------------------|


Bridge: Baby. Your driving me crazy. Listen to the song for the fast rhythm.


e--9-9-9-9-9-9--9-9-9-9-9-9-9---777777-7777s999---|
B--101010101010-10101010101010--777777-7777s999---|
G--111111111111-11111111111111--777777-7777s999---|  x2
D--111111111111-11111111111111--000000-0000-000---|
A--9-9-9-9-9-9--9-9-9-9-9-9-9---000000-0000-000---|
E--9-9-9-9-9-9--9-9-9-9-9-9-9---000000-0000-000---|

Fill: And do you really want to know: Em7,C,D.

Almost there ...

Sign in to get your own page with links to favourite songs and more. You are just one click away...

Login with Facebook Login with Google