Log in

One click and you are in

Login with Facebook Login with Google

Why sign up and log in

Guitar Tabs Explorer
Pulp bass tabs for Being followed home

Bass tabs

Bass starts at 1:11


Intro: 1:11

G|--|---------|------|---------|---------|---------|-------|--------|-----------------|
D|--|---------|------|---------|--------5|7--------|------5|7-------|-----------------|
A|--|---------|------|---------|---------|------7-8|5------|-----7-8|5-5-5-5-5-5-5-5--|
E|-1|/6----5-7|8----1|/6----5-7|8--------|---------|-------|--------|-----------------|


Verse A: x2  1:28

G|--------------------|-------------------|-------------------|--------------------|
D|--------------------|-------------------|-------------------|--------------------|
A|-13--13-13--13-13-13|13--13-13--13-12-11|12--12-12--12-12-12|12--12-12--12-12-12-|
E|--------------------|-------------------|-------------------|--------------------|

G|--------------------|-------------------|-------------------|--------------------|
D|--------------------|-------------------|-------------------|--------------------|
A|-13--13-13--13-13-13|13--13-13--13-13-13|-------------------|--------------------|
E|--------------------|-------------------|10--10-10--10-10-10|10--10-10--10-10-10-|


Chorus: x2 1:58

G|----------|--------|--------------------------|---------------------------|
D|----------|--------|--------------------------|---------------------------|
A|-9--9-9--9|9--9-9-9|10--10-10--10-10--10-10-10|---------------------------|
E|----------|--------|--------------------------|11--11-11--11-11--11-11-11-|



Verse B:  2:20

G|--------------------|-------------------|-------------------|--------------------|
D|--------------------|-------------------|-------------------|--------------------|
A|-13--13-13--13-13-13|13--13-13--13-12-11|12--12-12--12-12-12|12--12-12--12-12-12-|
E|--------------------|-------------------|-------------------|--------------------|

G|--------------------|-------------------|-------------------|--------------------|
D|--------------------|-------------------|-------------------|--------------------|
A|-13--13-13--13-13-13|13--13-13--13-12-11|12--12-12--12-12-12|12--12-12--12-12-12-|
E|--------------------|-------------------|-------------------|--------------------|

G|--------------------|-------------------|-------------------|--------------------|
D|--------------------|-------------------|-------------------|--------------------|
A|-13--13-13--13-13-13|13--13-13--13-13-13|-------------------|--------------------|
E|--------------------|-------------------|10--10-10--10-10-10|10--10-10--10-10-10-|

G|--------------------|-------------------|-------------------|--------------------|
D|--------------------|-------------------|-------------------|--------------------|
A|-13--13-13--13-13-13|13--13-13--13-12-11|12--12-12--12-12-12|12--12-12--12-12-12-|
E|--------------------|-------------------|-------------------|--------------------|

G|--------------------|-------------------|-------------------|--------------------|
D|--------------------|-------------------|-------------------|--------------------|
A|-13--13-13--13-13-13|13--13-13--13-13-13|-------------------|--------------------|
E|--------------------|-------------------|10--10-10--10-10-10|10--10-10--10-10-10-|



Chorus: 2:55

G|----------|--------|--------------------------|---------------------------|
D|----------|--------|--------------------------|---------------------------|
A|-9--9-9--9|9--9-9-9|10--10-10--10-10--10-10-10|---------------------------|
E|----------|--------|--------------------------|11--11-11--11-11--11-11-11-|

G|----------|--------|--------------------------|-----------------------------------------------------|
D|----------|--------|--------------------------|-----------------------------------------------------|
A|-9--9-9--9|9--9-9-9|10--10-10--10-10--10-10-10|-----------------------------------------------------|
E|----------|--------|--------------------------|11--11-11--11-11--11-11-11-11-11-11-11-11-11-11-11...|



Bridge: x16 3:24

G|--------------------------|
D|--------------------------|
A|--------------------------|
E|-10-12-13--10-12-13-12-13-|



Verse C: 3:52

G|--------|--------|---------|---------|---------|---------------|-------|--------|
D|--------|--------|---------|---------|---------|---------------|-------|--------|
A|-13--13-|-13--13-|-12---12-|-12---12-|-13---13-|-13-------13-13|-------|--------|
E|--------|--------|---------|---------|---------|---------------|10--10-|-10--10-|

G|--------|-----------------|-------|-----------------|----------------|--------------------|
D|--------|-----------------|-------|-----------------|----------------|--------------------|
A|-13--13-|-13--13--13-12-11|12--12-|-12--12--12-12-12|13--13--13-13-13|13--13-13--13-13-13-|
E|--------|-----------------|-------|-----------------|----------------|--------------------|

G|--------------------|--------------------|
D|--------------------|--------------------|
A|--------------------|--------------------|
E|-10--10-10--10-10-10|10--10-10--10-10-10-|

G|------------------|-------------------|-------------------|--------------------|
D|------------------|-------------------|-------------------|--------------------|
A|-13--13---13-13-13|13--13-13--13-12-11|12--12-12--12-12-12|12--12-12--12-12-12-|
E|------------------|-------------------|-------------------|--------------------|

G|--------------------|-------------------|-------------------|--------------------|
D|--------------------|-------------------|-------------------|--------------------|
A|-13--13-13--13-13-13|13--13-13--13-13-13|-------------------|--------------------|
E|--------------------|-------------------|10--10-10--10-10-10|10--10-10--10-10-10-|

G|--------------------|-------------------|-------------------|--------------------|
D|--------------------|-------------------|-------------------|--------------------|
A|-13--13-13--13-13-13|13--13-13--13-12-11|12--12-12--12-12-12|12--12-12--12-12-12-|
E|--------------------|-------------------|-------------------|--------------------|

G|--------------------|-------------------|-------------------|--------------------|
D|--------------------|-------------------|-------------------|--------------------|
A|-13--13-13--13-13-13|13--13-13--13-13-13|-------------------|--------------------|
E|--------------------|-------------------|10--10-10--10-10-10|10--10-10--10-10-10-|

G|--------------------|-------------------|-------------------|--------------------|
D|--------------------|-------------------|-------------------|--------------------|
A|-13--13-13--13-13-13|13--13-13--13-12-11|12--12-12--12-12-12|12--12-12--12-12-12-|
E|--------------------|-------------------|-------------------|--------------------|



Outro: 5:06

G|--------|--------|--------|--------|--------|--------|--------|----|
D|--------|--------|--------|--------|--------|--------|--------|----|
A|-13-----|-13-----|-12-----|-12-----|-13-----|-13-----|--------|----|
E|--------|--------|--------|--------|--------|--------|-10-----|-10-|

G|--------|--------|--------|--------|--------|--------|--------|----|
D|--------|--------|--------|--------|--------|--------|--------|----|
A|-13-----|-13-----|-12-----|-12-----|-13-----|-13-----|--------|----|
E|--------|--------|--------|--------|--------|--------|-10-----|-10-|

G|--------|--------|--------|--------|----|
D|--------|--------|--------|--------|----|
A|-13-----|-13-----|-12-----|-12-----|-13-|
E|--------|--------|--------|--------|----|


************************************

| /  Slide up

Almost there ...

Sign in to get your own page with links to favourite songs and more. You are just one click away...

Login with Facebook Login with Google