Log in

One click and you are in

Login with Facebook Login with Google

Why sign up and log in

Guitar Tabs Explorer
Pulp tabs for Babies

Guitar tabs

PULP                     "BABIES"

If you can understand Jarvis you should be able to understand this tab.


Intro:
This is what the top two strings of one guitarist do
through the intro.
E-------9---------------9--etc-------7----7--etc----
B-10-10---10-10---10-10----------8-8---88---------10
This is what the top string or the other guitarist does
E---------3-4-5-5-4-3-3-4-5--

Then the bassist comes in doing something like with a
certain rhythm which continues through most of the song.
G-------------------------------
D-------------------------------
A-------------------------------
E-----5-5-5-5-5-5-3-3-3-3-3-3---
Then the guitar comes in properly:
E----------------------------------------------------
B----------------------------------------------------
G----------------------------------------------------
D----------------------------------------------------
A--0-3-5-0-3-5-0------4---4--------------------------
E-----------------5-5---5---5-5-5-5-4-3-3-5-3-5-33 etc
Grateful for any Pulp info.

Almost there ...

Sign in to get your own page with links to favourite songs and more. You are just one click away...

Login with Facebook Login with Google