Log in

One click and you are in

Login with Facebook Login with Google

Why sign up and log in

Guitar Tabs Explorer
Giacomo Puccini tabs for O mio babbino caro

Guitar tabs

|------------------------------------------10-----5------5--------------------0--2-------------------------|
|---3--3--3---7----------------3--5--7----------------7------5---8--7---3--3--------3-----5-----3----------|
|---2--------------6--4----2---2--------7----------------------------------------------4-----2-------------|
|----------------------------------------------------------------------------------------------------------|
|----------------------------------------------------------------------------------------------------------|
|----------------------------------------------------------------------------------------------------------|

|-----------------------------------10-----5------5--------------------0--2------------10------------------|
|------7----------------3--5--7----------------7------5---8--7---3--3--------3----0------------------------|
|-----------6--4----2---2--------7-------------------------------------------------------------------------|
|----------------------------------------------------------------------------------------------------------|
|----------------------------------------------------------------------------------------------------------|
|----------------------------------------------------------------------------------------------------------|

Almost there ...

Sign in to get your own page with links to favourite songs and more. You are just one click away...

Login with Facebook Login with Google