Log in

One click and you are in

Login with Facebook Login with Google

Why sign up and log in

Guitar Tabs Explorer
Psyched Up Janis bass tabs for I think you suck

I Think You Suck bass tab - Psyched Up Janis

Psyched Up Janis bass tabs for I think you suck

Bass tabs

Tuning: Standard (E A D G)

Difficulty: Novice


Intro:(00:00)

G|---------------------------------------------------------------------------|
D|-------------0-2---------------0-2---------------0-2---------------0-2-----|
A|----7\-2-2-2----------7\-2-2-2----------7\-2-2-2----------7\-2-2-2---------|
E|--0-----------------0-----------------0-----------------0------------------|x3

Verse:(00:25)

G|---------------------------------------------------------------------------|
D|-------------0-2---------------0-2---------------0-2---------------0-2-----|
A|----7\-2-2-2----------7\-2-2-2----------7\-2-2-2----------7\-2-2-2---------|
E|--0-----------------0-----------------0-----------------0------------------|x4


Chorus:(00:58)

G|---------------------------------------------------------------------------|
D|-0-----------------------------------------------0-2---------------0-2-----|
A|----------------------------------------7\-2-2-2----------7\-2-2-2---------|
E|--------------------------------------0-----------------0------------------|

G|---------------------------------------------------------------------------|
D|-0----------------------------------------------0-2-0----------------------|
A|----------------------------------------7\-2-2-2---------------------------|
E|--------------------------------------0------------------------------------|

Post-Chorus:(01:15)

G|---------------------------------------------------------------------------|
D|-------------0-2---------------0-2---------------0-2---------------0-2-----|
A|----7\-2-2-2----------7\-2-2-2----------7\-2-2-2----------7\-2-2-2---------|
E|--0-----------------0-----------------0-----------------0------------------|


Verse:(01:23)

G|---------------------------------------------------------------------------|
D|---------------------------------------------------------------------------|
A|---------------------------------------------------------------------------|
E|---------------------------------------------------------------------------|2x break

G|---------------------------------------------------------------------------|
D|-------------0-2---------------0-2---------------0-2---------------0-2-----|
A|----7\-2-2-2----------7\-2-2-2----------7\-2-2-2----------7\-2-2-2---------|
E|--0-----------------0-----------------0-----------------0------------------|x2


Chorus:(01:56)

G|---------------------------------------------------------------------------|
D|-0-----------------------------------------------0-2---------------0-2-----|
A|----------------------------------------7\-2-2-2----------7\-2-2-2---------|
E|--------------------------------------0-----------------0------------------|

G|---------------------------------------------------------------------------|
D|-0----------------------------------------------0-2-0----------------------|
A|----------------------------------------7\-2-2-2---------------------------|
E|--------------------------------------0------------------------------------|


Post-Chorus:(02:13)

G|---------------------------------------------------------------------------|
D|-------------0-2---------------0-2---------------0-2---------------0-2-----|
A|----7\-2-2-2----------7\-2-2-2----------7\-2-2-2----------7\-2-2-2---------|
E|--0-----------------0-----------------0-----------------0------------------|


Solo:(02:21)

G|---------------------------------------------------------------------------|
D|-------------0-2---------------0-2----0-------------------0----------------|
A|----7\-2-2-2----------7\-2-2-2---------------------------------------------|
E|--0-----------------0------------------------------------------------------|

G|---------------------------------------------------------------------------|
D|-------------0-2---------------0-2-----------------------------------------|
A|----7\-2-2-2----------7\-2-2-2---------------------------------------------|
E|--0-----------------0------------------------------------------------------|


Chorus:(02:33)

G|---------------------------------------------------------------------------|
D|-0-----------------------------------------------0-2---------------0-2-----|
A|----------------------------------------7\-2-2-2----------7\-2-2-2---------|
E|--------------------------------------0-----------------0------------------|

G|---------------------------------------------------------------------------|
D|-0----------------------------------------------0-2-0----------------------|
A|----------------------------------------7\-2-2-2---------------------------|
E|--------------------------------------0------------------------------------|


Post-Chorus:(02:50)

G|---------------------------------------------------------------------------|
D|-------------0-2---------------0-2---------------0-2---------------0-2-----|
A|----7\-2-2-2----------7\-2-2-2----------7\-2-2-2----------7\-2-2-2---------|
E|--0-----------------0-----------------0-----------------0------------------|


Outro/Solo:(02:58)

G|---------------------------------------------------------------------------|
D|-------------0-2---------------0-2----0-------------------0----------------|
A|----7\-2-2-2----------7\-2-2-2---------------------------------------------|
E|--0-----------------0------------------------------------------------------|
(x8)


************************************

| \  Slide down

************************************

Almost there ...

Sign in to get your own page with links to favourite songs and more. You are just one click away...

Login with Facebook Login with Google