Log in

One click and you are in

Login with Facebook Login with Google

Why sign up and log in

Guitar Tabs Explorer
Provinz bass tabs for Nur bei dir

Bass tabs

Tuning: Standard (E A D G)


Intro:

no bass

Verse 1:

G| --------------------------------------------------------------------------------|
D| --------------------------------------------------------------------------------|
A| -------------------------------------------------------------------------------3|
E| ------------------------------------------------------------------------------5-|
  |        |        |        |        |

G| --------------------------------------------------------------------------------|
D| --------------------------------------------------------------------------------|
A| --5------------3--5------------3--5------------3--5-----------5-3-----3--------3|
E| --------------5---------------5---------------5-------------------------3-----5-|
  |        |        |        |        |

G| --------------------------------------------------------------------------------|
D| --------------------------------------------------------------------------------|
A| --5-------------5-------------5-3-------------3---------------------------------|
E| ------------------------------------------------3-------------------------------|
  |        |        |        |        |

G| ----------------------------------------------------------------|
D| ----------------------------------------------------------------|
A| 5-------------5-3-------------3--------------------------------3|
E| --------------------------------3-----------------------------5-|
  |        |        |        |


Chorus:

G| ----------------------------------------------------------------|
D| ----------------------------------------------------------------|
A| --5-5-5-5-5-5-5-5-3-3-3-3-3-3-3---------------------------------|
E| --------------------------------5-3-3-3-3-3-3-3-3-3-3-3-3-3-3-3-|
  |        |        |        |

G| ----------------------------------------------------------------|
D| ----------------------------------------------------------------|
A| 3-5-5-5-5-5-5-5-5-3-3-3-3-3-3-3---------------------------------|
E| --------------------------------5-3-3-3-3-3-3-3-3-3-3-3-3-3-3-3-|
  |        |        |        |


Verse 1:

G| ----------------------------------------------------------------|
D| ----------------------------------------------------------------|
A| ---------------------------------------------------------------3|
E| --------------------------------------------------------------5-|
  |        |        |        |

G| --------------------------------------------------------------------------------|
D| --------------------------------------------------------------------------------|
A| --5------------3--5------------3--5------------3--5-----------5-3-----3--------3|
E| --------------5---------------5---------------5-------------------------3-----5-|
  |        |        |        |        |

G| --------------------------------------------------------------------------------|
D| --------------------------------------------------------------------------------|
A| --5-------------5-------------5-3-------------3---------------------------------|
E| ------------------------------------------------3-------------------------------|
  |        |        |        |        |

G| ----------------------------------------------------------------|
D| ----------------------------------------------------------------|
A| 5-------------5-3-------------3--------------------------------3|
E| --------------------------------3-----------------------------5-|
  |        |        |        |


Chorus:

G| ----------------------------------------------------------------|
D| ----------------------------------------------------------------|
A| --5-5-5-5-5-5-5-5-3-3-3-3-3-3-3---------------------------------|
E| --------------------------------5-3-3-3-3-3-3-3-3-3-3-3-3-3-3-3-|
  |        |        |        |

G| ----------------------------------------------------------------|
D| ----------------------------------------------------------------|
A| 3-5-5-5-5-5-5-5-5-3-3-3-3-3-3-3--------------------------------3|
E| --------------------------------5-3-3-3-3-3-3-3-3-3-3-3-3-3-3-5-|
  |        |        |        |


Solo:

G| ----------------------------------------------------------------|
D| ----------------------------------------------------------------|
A| --5---5/8---5-53--3---3/7---5-3--------------------------------3|
E| -------------------------------3--3---3/7---5-33--3---3/7---5-5-|
  |        |        |        |

G| ----------------------------------------------------------------|
D| ----------------------------------------------------------------|
A| --5---5/8---5-53--3---3/7---5-3--------------------------------3|
E| -------------------------------3--3---3/7---5-33--3---3/7---5-5-|
  |        |        |        |

G| ----------------------------------------------------------------|
D| ----------------------------------------------------------------|
A| --5---5/8---5-53--3---3/7---5-3---------------------------------|
E| -------------------------------3--3---3/7---5-33--3---3/7---5-33|
  |        |        |        |

G| ----------------------------------------------------------------|
D| ----------------------------------------------------------------|
A| ---------------------------------------------------------------3|
E| ------------------------------------------------3-3-3-3-3-3-3-5-|
  |        |        |        |


Chorus:

G| ----------------------------------------------------------------|
D| ----------------------------------------------------------------|
A| 3-5-5-5-5-5-5-5-5-3-3-3-3-3-3-3-3-------------------------------|
E| ----------------------------------3-3-3-3-3-3-3-3-3-3-3-3-3-3-3-|
  |        |        |        |

G| ----------------------------------------------------------------|
D| ----------------------------------------------------------------|
A| 3-5-5-5-5-5-5-5-5-3-3-3-3-3-3-3---------------------------------|
E| --------------------------------5-3-3-3-3-3-3-3-3-3-3-3-3-3-3-5-|
  |        |        |        |

G| --------------------------------------------------------------------------------|
D| --------------------------------------------------------------------------------|
A| 3-5-5-5-5-5-5-5-5-3-3-3-3-3-3-3--------------------------------3--5-------------|
E| --------------------------------5-3-3-3-3-3-3-3-3-3-3-3-3-3-3-5-----------------|
  |        |        |        |        |


************************************

How I play it: https://youtu.be/BpjLP4ER97o

/ = Slide up

************************************

Almost there ...

Sign in to get your own page with links to favourite songs and more. You are just one click away...

Login with Facebook Login with Google