Log in

One click and you are in

Login with Facebook Login with Google

Why sign up and log in

Guitar Tabs Explorer
Protest The Hero tabs for Sans fromage solo

Guitar tabs

Sans Fromage (demo) by Protest The Hero

This is just one of the last riffs in the song, my favorite part

Key
~ let note ring
b( ) bend string to number in parenthesis
(PM) line is palm muted
(T) line is tapped
Guitar 1
A chord diagramEb MajorEb|------------------------------7--9--10--|
A chord diagramBb majorBb|--------------------7--9--10------------|
A chord diagramGbGb|-----------6--7--9----------------------|
A chord diagramDbDb|--6--7--9-------------------------------|
A chord diagramAbAb|----------------------------------------|
A chord diagramEb MajorEb|----------------------------------------|

Guitar 1
|--12~~~~~~~~~~~~~~~~~~~~~~~~~~~~~~~~~~~~12b(14)~~~~~~~~~~~~~~~
|--------------------------------------------------------------|
|--------------------------------------------------------------|
|--------------------------------------------------------------|
|--------------------------------------------------------------|
|--------------------------------------------------------------|
&
Guitar 2
eb|-----------------------------5--9--5--12--9-----------------|
A chord diagramBb majorBb|-----------------------5---------------------10-------------|
A chord diagramGbGb|-----------------6--------6----------------------9----------|
A chord diagramDbDb|-----------7--------7-------------------------------11------|
A chord diagramAbAb|-----7--------7-----------------------------------------12--|
A chord diagramEb MajorEb|--5-----9---------------------------------------------------|

Guitar 1
A chord diagramE MajorE|--12~~~~~~~~~~~~~~~~~~~~~~~~~~~~~~~~~~10--9-~~~~~~~~~~~~~~~~~~~~~~~-|
A chord diagramBB|--------------------------------------------------------------------|
A chord diagramG+G|--------------------------------------------------------------------|
A chord diagramD MajorD|--------------------------------------------------------------------|
A chord diagramA augmentedA|--------------------------------------------------------------------|
A chord diagramE MajorE|--------------------------------------------------------------------|
&
Guitar 2
|----------------------------------9-----12--16--12------------------|
|----------------------------9--------9--------------14--------------|
|---------------------9---------9------------------------13----------|
|-------------11---------11----------------------------------14------|
|-----11----------11---------------------------------------------16--|
|--9------12---------------------------------------------------------|

Guitar 1
|--7--5~~~~~~~~~~~~~~~~~~~~~~~~~~-|
|---------------------------------|
|---------------------------------|
|---------------------------------|
|---------------------------------|
|---------------------------------|
&
|-----------------------------9--|
|---------------------10---------|
|-------------11----------11-----|
|-----11----------11-------------|
|--9------12---------------------|
|--------------------------------|

Guitar 2 (PM)
|---------------------------------------7-7--|
|-----------------------------9-9------------|
|-------------------9-9------------9-9-------|
|-------9-9--------------9-9-----------------|
|--7-7-------11-11---------------------------|
|--------------------------------------------|

Guitar 2
|------------------------------10--|
|----------------------12----------|
|--------------12----------12------|
|------12----------12--------------|
|--10------14----------------------|
|----------------------------------|

Guitar 2 (PM)
|-------------------------------------5-5--|
|---------------------------7-7------------|
|-----------------7-7------------7-7-------|
|-------7-7------------7-7-----------------|
|--5-5-------9-9---------------------------|
|------------------------------------------|

Guitar 2
|-----------------------------5--9--5--12--9-----------------|
|-----------------------5---------------------10-------------|
|-----------------6--------6----------------------9----------|
|-----------7--------7-------------------------------11------|
|-----7--------7-----------------------------------------12--|
|--5-----9---------------------------------------------------|

Guitar 2
|----------------------------------9-----12--16--12------------------|
|----------------------------9--------9--------------14--------------|
|---------------------9---------9------------------------13----------|
|-------------11---------11----------------------------------14------|
|-----11----------11---------------------------------------------16--|
|--9------12---------------------------------------------------------|

Guitar 2
|-----------------------------9--|
|---------------------10---------|
|-------------11----------11-----|
|-----11----------11-------------|
|--9------12---------------------|
|--------------------------------|

Guitar 2
|--10--9-------------10--9------|
|---------10----------------10--|
|-------------11--9-------------|
|-------------------------------|
|-------------------------------|
|-------------------------------|

Guitar 2
|----------------------12--16--17--|
|------------------14--------------|
|--------------14------------------|
|----------14----------------------|
|--12--16--------------------------|
|----------------------------------|

Guitar 2 (T)
|--------------------------17------------------16--17--16--14--12--|
|--17--12--16--17--12--17------17--12--16--17----------------------|
|------------------------------------------------------------------|
|------------------------------------------------------------------|
|------------------------------------------------------------------|
|------------------------------------------------------------------|

This is a demo recorded for the album Scurrilous.
All of their albums are transcribed at http://www.sheethappenspublishing.com/

Almost there ...

Sign in to get your own page with links to favourite songs and more. You are just one click away...

Login with Facebook Login with Google