Log in

One click and you are in

Login with Facebook Login with Google

Why sign up and log in

Guitar Tabs Explorer
Prostitute Disfigurement tabs for Shotgun horror

Shotgun Horror tab - Prostitute Disfigurement

Prostitute Disfigurement tabs for Shotgun horror

Guitar tabs with lyrics

Prostitute Disfigurement
Left In Grisly Fashion
Shotgun Horror

Copyright (c)  Neurotic Records 2005
Version 1.0 - 17.10.2009

Transcribed By: Yaniv Dekel
.  - palm mute           /  - slide up to
\  - slide down to       ~  - vibrato
h  - hammer on           b  - Bend
p  - pull off            Suffixes for bend
t  - tap                 f  - full bend    h - half bend
ph - pinched harmonic    q  - quarter bend t - tap bend
*  - see comment         ^  - Hold bend    r release bend
x  - Stuccatto           ~  - vibrato bend
,  - slight palm mute    () - ghost note, sustained note
"  - tremolo note        <> - Trill


Tuning is A chord diagramD MajorD standard


Riff A chord diagramA augmentedA x2
|-------------------------------------------------------------|
|-------------------------------------------------------------|
|-------------------------------------------------------------|
|-------------------------------------------------------------|
|-5------8------7------5-------5-------------7------2---------|
|----000----000----000---6-3-6----000-6--000----000---3-1-3---|
     ...    ...    ...   . . .    ...    ...    ...   . . .

Riff A chord diagramBB x3
|------------------------------------|
|------------------------------------|
|------------------------------------|
|-----"-"-" ---"-"---"-"-"---"-------|
|-7-"-6-7-10-"-6-7-"-7-6-7-"-7-"-"---|
|---0--------0-----0-------8---5-6---|

 -------------------------------------|
 -------------------------------------|
 -------------------------------------|
 -----"-"-" ---"-" ---"-"-"---"-------|
 -7-"-6-7-10-"-9-10-"-7-6-7-"-7-"-"---|
 ---0--------0------0-------8---5-6---|


Riff A chord diagramA augmentedA x2

Riff A chord diagramBB x2


Riff A chord diagramC majorC x4
|-------------------------------------------------------------------|
|----* 4th time last note is 4 (instead of 0) *---------------------|
|-------------------------------------------------------------------|
|-------------------------------------------------------------------|
|-2-------------2-2-------------3-3---------------5-------3---------|
|-0-1-0-1-0-1-0-3-3-0-1-0-1-0-1-4-4-0-1-0-1-0-1-0---6-5-6---4-3-0---|
    . . . . . .     . . . . . .     . . . . . . .   . . .   . . .


Riff A chord diagramD MajorD x4
|-------------------------------------------------|
|-------------------------------------------------|
|-----------------------------"------"------------|
|-6 \ 3-------5 / 8-----------3------2------------|
|-x-------"---x-------2---2---4------3---"---"----|
|-4 \ 1---0---3 / 6---0---0--------------1---0----|
          .           .   .

 -------------------------------------------------|
 -------------------------------------------------|
 -------------------------------------------------|
 -6 \ 3-------5 / 8-----------"------"------------|
 -x-------"---x-------2---2---5------4---"---"----|
 -4 \ 1---0---3 / 6---0---0---6------5---1---0----|
          .           .   .


Riff A chord diagramE MajorE x2
|---------------------------------|
|---------------------------------|
|---------------------------------|
|---------------------------------|
|-------------------------8p6-6---|
|-6-5-4-5-4-5-0-5-6-5-4-5---------|
  . . . . . . . . . . . .


Riff A chord diagramBB x3

Riff A chord diagramC majorC x4

Riff A chord diagramA augmentedA x2


Riff A2 x2
|-------------------------------------------------------------|
|-------------------------------------------------------------|
|-------------------------------------------------------------|
|-7------10-----9--------------7-------------9----------------|
|-5------8------7------5-------5------8------7------2---------|
|----000----000----000---6-3-6----000-6--000----000---3-1-3---|
     ...    ...    ...   . . .    ...    ...    ...   . . .

End x1
|-------|
|-------|
|-------|
|-------|
|-2-----|
|-0-----|

Almost there ...

Sign in to get your own page with links to favourite songs and more. You are just one click away...

Login with Facebook Login with Google