Log in

One click and you are in

Login with Facebook Login with Google

Why sign up and log in

Guitar Tabs Explorer
Jorell Prospero tabs for Ordinary song

Guitar tabs

ORDINARY SONG - MARC VELASCO (ARRANGED BY JORELL PROSPERO)


TUNING: STANDARD

INTRO:


e-------0----3S8-----------------------1--------------------|
B----------------------8---5---5-----3-3-3-3----------------|
G-----0---0----------5---5---5------2-----2-----------------|
D---2--------------7---------------0------------------------|
A-3---------------------------------------------------------|
E----------------5---------5--------------------------------|

e------------------------------------------------------------|
B--0-1-0-1S3-------------------------------------------------|
G--0-2-0-2S4-------------------------------------------------|
D------------------------------------------------------------|
A------------------------------------------------------------|
E--3---------------------------------------------------------|

e-------0----3S8-----------------------1--------------------|
B----------------------8---5---5-----3-3-3-3----------------|
G-----0---0----------5---5---5------2-----2-----------------|
D---2--------------7---------------0------------------------|
A-3---------------------------------------------------------|
E----------------5---------5--------------------------------|

e-------------------------------------------------------------------------------|
B--0-1-0-1S3--------------------------------------------------------------------|
G--0-2-0-2S4--------------------------------------------------------------------|
D-------------------------------------------------------------------------------|
A-------------------------------------------------------------------------------|
E--3--------------------------------------------------------- --- REPEAT--------| 2X


VERSE:

e-----------------------3---0--1--1--1---------------------------|
B--------------3--1------------3--3--3---1-0-----0-1----3--------|
G-----0--0-0----------2--------------------------0-2----2--------|
D-2-3---2------------2---------0-------0-------0-----------------|
A-----3------3------0-----0--------------------------------------|
E--------------------------------------------3-------3-----------|

e-1-1-1--------------------------0-------------------------------|
B-3-3-3-----0---0--1-1h2---0------0-0-0-1-0-1s3------------------|
G---------2-----0--2---------2-0---0--0-2-0-2s4------------------|
D-0-----0--------------------------------------------------------|
A-----------------------------3----------------------------------|
E-------------3----------3------------3--------------------------|

e-----------------------3---0--1--1--1---------------------------|
B--------------3--1------------3--3--3---1-0-----0-1----3--------|
G-----0--0-0----------2--------------------------0-2----2--------|
D-2-3---2------------2---------0-------0-------0-----------------|
A-----3------3------0-----0--------------------------------------|
E--------------------------------------------3-------3-----------|

e-1-1-1--------------------------0--------0-----------------------|
B-3-3-3-----0---0--1-1h2---0------0-0----1------------------------|
G---------2-----0--2---------2-0---0----3-------------------------|
D-0-----0------------------------------2--------------------------|
A-----------------------------3-------3---------------------------|
E-------------3----------3----------------------------------------|

BUT IF YOU GIVE TO FIND YOURSELF,

e---------0-----------------0------------------------------------|
B-1-1--3----1-1--1H3-3---------3--0-0-1--3--3-3----1-0-1---------|
G-------------------------0--0-----------1-----------------------|
D---------3----3---------0---------------------------------------|
A----------------------------------------------------------------|
E----------------------3-----------------0-------0---------------|

e----------------0---------------0-----------------------0-----------|
B----1-----1--3----1-1--1H3----------3--0--0--1-3--3--3-----3-0-1----|
G---2--------------------------0---0------------1--------------------|
D--2-----2-------3-----------0---------------------------------------|
A-0------------------------------------------------------------------|
E------3--------------------3-------------------0---------0----------|


e------0----------0---------------------1----------------0--------------|
B----1---3-1-----1--2-2--0--1-1H3-------1-1--1---3-1------1-1-1---------|
G---2--------2--2------------------0--0-2--------0-----0---0--0---------|
D--2-----------3------------------------4-------------2-------2---------|
A-0-------------------------------------4------------3--------3---------|
E------3-----------------3--------------1------3------------------------|


REPEAT AGAIN.. PAULIT ULIT NA LANG PO YAN:)

HOPE YOU LIKE IT!

KUNG GAGAMITIN NYO MAN PO ANG ARRANGEMENT KO NA TO, PALAGYAN NG CREDITS.. HIRAP KASI GUMAWA.
THANK YOU!

Almost there ...

Sign in to get your own page with links to favourite songs and more. You are just one click away...

Login with Facebook Login with Google