Log in

One click and you are in

Login with Facebook Login with Google

Why sign up and log in

Guitar Tabs Explorer
Prong tabs for Sublime

Guitar tabs

Title: Sublime
Album: Cleansing

/ - slide up
(x) - don't pick note, or optional
\ - slide down
p - pull-off
% - rest
* - note
s - semi-tone bend
r - release bend
~ - vibrato

  play with distortion throughout

  intro/chorus

2-10--10--10--10/(12)---12--12\---10--10--10--10/(12)---15p12------
3-10--10--10--10/(12)---12--12\---10--10--10--10/(12)----------12--
4-10--10--10--10/(12)---12--12\---10--10--10--10/(12)--------------

2-10--10--10--10/(12)---12--12\--------------------------
3-10--10--10--10/(12)---12--12\--0--0--0--0--0--0--------
4-10--10--10--10/(12)---12--12\--3--3--3--2--2--2--------
5--------------------------------------------------3--0--

2-10--10--10--10/(12)---12--12\---10--10--10--10/(12)---15p12------
3-10--10--10--10/(12)---12--12\---10--10--10--10/(12)----------12--
4-10--10--10--10/(12)---12--12\---10--10--10--10/(12)--------------

2-10--10--10--10/(12)---12--12\-----------------------------
3-10--10--10--10/(12)---12--12\--0--0--0--0-----0--0--0--0--
4-10--10--10--10/(12)---12--12\--3--3--3--3/(5)-5--5--5--5--

  verse

1-------------------------2--------------------------------------------------
2-4-------------4-4----------------4------------------------------4----------
3-4---3---3---3-4-4---3------3-----4---3---3---3------------------4---3---3--
4-4---4-%-4-%-4-4-4---4---------4--4---4-%-4-%-4------------------4---4-%-4-%
5-2---1---1---1-2-2-0-1------------2---1---1---1-------1-1-1------2---1---1--
6-2---1---1---1-2-2-0-1------------2---1---1---1-3-3-3-------2-2--2---1---1--

                                                   * or open string
1-------------2---------------------------------------
2---4-4----------------4------------------------------
3-3-4-4---3------3-----4---3---3---3------------------
4-4-4-4---4---------4--4---4-%-4-%-4------------------
5-1-2-2-0-1------------2---1---1---1-------1-1-1-3-3--
6-1-2-2-0-1------------2---1---1---1-3-3-3------------

  bridge - play eighth notes on the open 5th string

  solo

2-10--10--10--10/(12)---12--12\---10--10--10--10/(12)---15p12------
3-10--10--10--10/(12)---12--12\---10--10--10--10/(12)----------12--
4-10--10--10--10/(12)---12--12\---10--10--10--10/(12)--------------

                                                        ~
2-10--10--10--10/(12)---12--12--------------------------------
3-10--10--10--10/(12)---12--12--------------------------------
4-10--10--10--10/(12)---12--12--14--14sr--14sr--14srp12-------
5-------------------------------------------------------15-%--
                                               ~
2--------------------------------------------------
3-/14--14--14--12--12--12--12----------------------
4------------------------------14--14srp12---------
5------------------------------------------15--12--

                 ~
3---------------------/14--14--14--14--12--12--12--12--12--
4-14--14srp12----12----------------------------------------
5-------------15-------------------------------------------

  outro

3-4-----3--
4-4-----4--
5-2-----1--
6-2-----1--

Almost there ...

Sign in to get your own page with links to favourite songs and more. You are just one click away...

Login with Facebook Login with Google