Log in

One click and you are in

Login with Facebook Login with Google

Why sign up and log in

Guitar Tabs Explorer
Prong tabs for Snap your fingers

Guitar tabs

I've just tabbed out the rhythm figures, which are easy enough to figure
out where to put 'em. I didn't transcribe this; Ask me no questions and
I'll tell you no lies : )
		     Snap Your Fingers, Snap Your Neck
			        By   Prong
                        From the Album   Cleansing

Dropped A chord diagramD MajorD tuning down one whole step
6=C  5=G  4=C  3=F  2=A  1=D


Intro

PM.......                                                          sl.
|-------------------------------------------------------------------------|
|-------------------------------------------------------------------------|
|-------------------------------0---------(0)--------------0---(0)--------|
|-------------------------------0---------(0)--------------0---(0)--------|
|--4----3--0-------(0)----------4---------(4)---------0-0--4---(4)--------|
|--4----3--0-------(0)--------------------------------0-0---------5//16\\-|

Rhy. Fill 1                        Intro Out

PM..... H ..............                                         pick slides
|-----------------------|          |-------------------------------------|
|-----------------------|          |-------------------------------------|
|-----------------------|          |-------------------------------------|
|-----0----0------------|          |-------------------------------------|
|--1--0^3--0-----1----1-|          |-4-----3---0--------(0)--------X\X//-|
|--1--0----0-----1----1-|          |-4-----3---0--------(0)--------X\----|


Rhy. Fill 2                        Riff A chord diagramA augmentedA

  sl       PM....h.....            PM......................... semi-harm.
|------------------------|        |---------------------------------------|
|------------------------|        |---------------------------------------|
|------------------------|        |---------------------------------------|
|---------------0---0----|        |---------------------------------------|
|----------1----0^3-0----|        |----------------------------5----------|
|--15\\----1----0---0----|        |---0--6-0-5-5--0-6--0-5---0------------|

Rhy. Fig. 2

                sl                                 sl
|---------------------------------------------------------|
|---------------------------------------------------------|
|------5--5--5--/0--0--0--0--7--7--7--7--7--7--7--7\\\5---|
|----------------6--6--6--6-------------------------------|
|------3--3--3--/6--6--6--6--5--5--5--5--5--5--5--5\\\3---|
|---------------------------------------------------------|


Rhy. Fill 3                            Riff A chord diagramBB
                       PM........     PM.h.............................
|--------------------------------|    |--------------------------------|
|--------------------------------|    |--------------------------------|
|---7--7--7--7--7----------------|    |--------------------------------|
|--------------------------------|    |--------------------------------|
|---5--5--5--5--5----15-15-15\\\-|    |3^5-5-5-5-5-5-5-5-5-5-5-5-5-5-5-|
|--------------------------------|    |--------------------------------|


Riff A chord diagramC majorC                                    Rhy Fill 4
PM..h.......h.......h.......h......        PM.................sl...sl.
|-----------------------------------|     |--------------------------|
|-----------------------------------|     |--------------------------|
|-----------------------------------|     |--7--7--7--7--7-----------|
|-----------------------------------|     |--------------------------|
|--3^5-5-5-3^5-5-5-3^5-5-5-3^5-5-5--|     |--5--5--5--5--5---5//15\\-|
|-----------------------------------|     |--------------------------|


Rhy. Fig. 3
         sl
|-------------------------------------------------------------|
|-------------------------------------------------------------|
|-9--9--9//12--12--12--12--11--11--11--11--11--11--11--11--9--|
|-------------------------------------------------------------|
|-7--7--7//10--10--10--10--9---9---9---9---9---9---9---9---7--|
|-------------------------------------------------------------|


Rhy. Fill 5

|--------------------|
|--------------------|
|-11-11-11-11-11-11--|
|--------------------|
|-9--9--9--9--9--9---|
|--------------------|

Almost there ...

Sign in to get your own page with links to favourite songs and more. You are just one click away...

Login with Facebook Login with Google