Log in

One click and you are in

Login with Facebook Login with Google

Why sign up and log in

Guitar Tabs Explorer
Prong tabs for Not of this earth

Guitar tabs

Title: Not Of This Earth
Album: Cleansing

Thanks for reading, somebody correct the solo if you know it.

detune string 6 one whole step

% - rest
x - muted string
/ - slide up

  intro - clean

1-9--9--9---10--10--10---9--9--10--12--10--9--------------------------
2-9--9--9-%-9---9---9--%-9--9--9---9---9---9--------------------------
3-9--9--9---9---9---9----9--9--9---9---9---9--------0--------0--------
4---------------------------------------------------------------------
5---------------------------------------------------------------------
6---------------------------------------------0--5-----5--7-----7--5--

1-9--9--9---10--10--10---9--9--10--12-----------------------------------
2-9--9--9-%-9---9---9--%-9--9--9---9------------------------------------
3-9--9--9---9---9---9----9--9--9---9--------------0-----------0---------
4-----------------------------------------------------------------------
5-----------------------------------------------------------------------
6---------------------------------------------0--5-----5--10-----10--3--

  verse - with distortion

1-9-9-9--9---10-10-10--10---9-9-9--10--12--10--9--------------------------
2-9-9-9--9-%-9--9--9---9--%-9-9-9--9---9---9---9--------------------------
3-9-9-9--9---9--9--9---9----9-9-9--9---9---9---9--------0--------0--------
4-------------------------------------------------------------------------
5-------------------------------------------------------------------------
6-------------------------------------------------0--5-----5--7-----7--5--

1-9-9-9--9---10-10-10--10---9-9-9--10--12-12-12----------------------------
2-9-9-9--9-%-9--9--9---9--%-9-9-9--9---9--9--9-----------------------------
3-9-9-9--9---9--9--9---9----9-9-9--9---9--9--9---------0---------0---------
4--------------------------------------------------------------------------
5--------------------------------------------------------------------------
6------------------------------------------------0--5-----5--10-----10--3--

  chorus - with tremolo and distortion

1-------------0-----0-------------------------------------
2-------------3-------------------------------------------
3-0----1--0---0---------------------------------0---------
4-x-----------x------------------3------------------------
5-2-----------2--------------1------1--------3------3--0--
6-2-----------2--------0--5------------0--3---------3--0--

  solo lead-in - with tremolo and distortion

1-9-9-9--9---x--x---10-10-10--10---x--x---9-9-9--9---x--x---9-9-9--10--12--10--
2-9-9-9--9-%-x--x-%-9--9--9---9--%-x--x-%-9-9-9--9-%-x--x-%-9-9-9--9---9---9---
3-9-9-9--9---x--x---9--9--9---9----x--x---9-9-9--9---x--x---9-9-9--9---9---9---

1-9--9-9----
2-9--9-9----
3-9--9-9-0--
4--------0--
5--------0--

  solo - with tremolo and distortion

1-9-9-9--9-9-9--10-10-10--10-10-10--9-9-9--10--12--10--9--
2-9-9-9--9-9-9--9--9--9---9--9--9---9-9-9--9---9---9---9--
3-9-9-9--9-9-9--9--9--9---9--9--9---9-9-9--9---9---9---9--

1---------------------------------0---------------------
2---------------------------------0---this chord--------
3-------0--------0--------0--/16--16--X 40 or so, with--
4-------------------------------------bends-------------
5-------------------------------------------------------
6-0--5-----5--7-----7--5--------------------------------

1-0--0--0----0--0--0--0-this chord--15--15--15--15--15--15--15--15-----
2-0--0--0/8--8--8--8--5-X 20 or so-/13--13--13--13--13--13--13--13-----
3-------0----0--0--0--0-------------12--12--12--12--12--12--12--12-----
4-------------------------------------------------------------------0--
5-------------------------------------------------------------------0--
6-------------------------------------------------------------------0--

Almost there ...

Sign in to get your own page with links to favourite songs and more. You are just one click away...

Login with Facebook Login with Google