Log in

One click and you are in

Login with Facebook Login with Google

Why sign up and log in

Guitar Tabs Explorer
Project 86 tabs for When darkness reigns

Guitar tabs

project 86 - when darkness reigns
album - project 86

"drop D"
Intro
e-------------------|--------------|
B--8888-7-----------|----play------|
G-------------------|----that------|
D-------------------|----many------|
A-------------------|----times-----|
D------------1-2-3--|----then...---|

     -the bass probably plays the bass line here, but if you play it, it
sound ok

e-------------------|--------------|
B--8888-7-----------|----play------|
G--xxxx-x-----------|----that------|
D--6666-5----1-2-3--|----many------|
A------------1-2-3--|----times-----|
D------------1-2-3--|----then...---|

e-------------------|--------------|
B-------------------|----play------|
G-------------------|----that------|
D-------------------|----many------|
A-------------------|----times-----|
D-66--777777--5--6--|----then...---|

e-------------------|--------------|
B--8888-7-----------|----play------|
G-------------------|----that------|
D-------------------|----many------|
A-------------------|----times-----|
D------------1-0-3--|----then...---|

e---xxxxxxxx--------|--------------|
B---xxxxxxxx--------|----play------|
G---xxxxxxxx--------|----that------|
D---xxxxxx33--------|----many------|
A---xxxxxx33--------|----times-----|
D---xxxxxx33--------|----then...---|

e-------------------|--------------|
B-------------------|----play------|
G-------------------|----that------|
D----1---0---3------|----once------|
A----1---0---3------|----then...---|
D----1---0---3------|--------------|

e--xx-------xx------|--------------|
B--xx-------xx------|----play------|
G--12-------18------|----that------|
D--xx-(16x)-xx-(16x)|----many------|
A--10-------16------|----times-----|
D--xx-------xx------|----then...---|

e-xx------------------|--------------|
B-xx------------------|----play------|
G-18------------------|----that------|
D-xx-(8x)-5------4-3--|----many------|
A-16------5-(6x)-4-3--|----times-----|
D-xx------5------4-3--|----then...---|

it ends with some funny scratching noises, then

D--3--
A--3--

Almost there ...

Sign in to get your own page with links to favourite songs and more. You are just one click away...

Login with Facebook Login with Google