Log in

One click and you are in

Login with Facebook Login with Google

Why sign up and log in

Guitar Tabs Explorer
Project 86 tabs for Steins theme

Guitar tabs

Band: Project 86
Album: Drawing Black Lines


Tunning: Drop A chord diagramD MajorD (D-A-D-G-B-E)
Intro
|------------------------------|
|------------------------------|
|------------------------------|
|--7^-7^-7^-7^-7^-7^-----------|
|--5^-5^-5^-5^-5^-5^-----------|
|--0--0--0--0--0--0------------|

after bass


Verse
rising up against the wickedness.....

|---------------------------------------------------------|
|---------------------------------------------------------|
|---------------------------------------------------------|on the last time this is played
|-0-0--0--0-0--0--0-0--0--0-------------------------------|bend the last 7 and don't play the
|-0-0--0--0-0--0--0-0--0--0-5-5-5-8-5-5-7-5-5-8-5-5-7-5-8-| 5 and 8
|-0-0--0--0-0--0--0-0--0--0-------------------------------|


Chorus
we aren't playing by the.....

|--------------------------------------|
|--------------------------------------|
|--------------7^---------------7/8/5--|
|-6-5-0--X-X-X-----6-5-0--X-X-X--------|
|-6-5-0--X-X-X-5^--6-5-0--X-X-X-5/6/5--|
|-6-5-0--X-X-X-----6-5-0--X-X-X--------|


Verse
all about the sound.....

|---------------------------------------------------------|
|---------------------------------------------------------|
|---------------------------------------------------------|on the last time this is played
|-0-0--0--0-0--0--0-0--0--0-------------------------------|bend the last 7 and don't play the
|-0-0--0--0-0--0--0-0--0--0-5-5-5-8-5-5-7-5-5-8-5-5-7-5-8-| 5 and 8
|-0-0--0--0-0--0--0-0--0--0-------------------------------|




Chorus
we aren't playing by the.....

|--------------------------------------|
|--------------------------------------|
|--------------7^---------------7/8/5--|
|-6-5-0--X-X-X-----6-5-0--X-X-X--------|
|-6-5-0--X-X-X-5^--6-5-0--X-X-X-5/6/5--|
|-6-5-0--X-X-X-----6-5-0--X-X-X--------|


Bridge

|------------------------------------------|
|------------------------------------------|
|------------------------------------------|
|-0-0-0--0-0-0--0-0-6--0-0-0--0-0-0--X-X-X-|
|-0-0-0--0-0-0--0-0-6--0-0-0--0-0-0--X-X-X-|
|-0-0-0--0-0-0--0-0-6--0-0-0--0-0-0--X-X-X-|


|----------------|
|----------------|
|----------------|
|-0-0--0-0--0-6--|
|-0-0--0-0--0-6--|
|-0-0--0-0--0-6--|

Almost there ...

Sign in to get your own page with links to favourite songs and more. You are just one click away...

Login with Facebook Login with Google