Log in

One click and you are in

Login with Facebook Login with Google

Why sign up and log in

Guitar Tabs Explorer
Project 86 tabs for Soma

Guitar tabs

Tuning: Drop A chord diagramD MajorD

XXINTROXX
Keyboard
E-9-10-12-14-10--9-10-9-10-12-14-------
G--------------------------------12-10-
B--------------------------------------
D--------------------------------------
A--------------------------------------
D--------------------------------------
continues from Last Meal, its most likely keyboard,but you can
mimic it with overdrive and echo
Guitar 1
E--------------------------------x4
B--------------------------------
G--------------------------------
D-7h9-9--9-9p7-7-7-7-7-7-7-2-2-2-
A-7h9-9--9-9p7-7-7-7-7-7-7-2-2-2-
D-7h9-9--9-9p7-7-7-7-7-7-7-2-2-2-
0:07

Guitar 2
E------------------
B------------------
G-7--9--11--12--11-
D-x--x--x---x---x--
A-5--7--9---10--9--
D------------------
0:22

E----------------------------------------x2
B----------------------------------------
G----------------------------------------
D-7h9-9--9-9p7-7-7-7-11-11-11-9-9-9-(0~)-
A-7h9-9--9-9p7-7-7-7-9--9--9--7-7-7-(0~)-
D-7h9-9--9-9p7-7-7-7-9--9--9--7-7-7-(0~)-
0:24
Play the part in (-) last time only

XXVerseXX
E-------2~------------x8
B---------------------
G---------------------
D-----0~------2-----4-
A---0-------2-----4---
D-0-------2-----4-----

E---------------------------------
B---------------------------------
G-----------------9*--------------
D-0--2-2--2--4-4--9*--------------
A-0--2-2--2--4-4------------------
D-0--2-2--2--4-4------------------

XXChorusXX
E--------------------------------x4
B--------------------------------
G--------------------------------
D-7h9-9--9-9p7-7-7-7-7-7-7-2-2-2-
A-7h9-9--9-9p7-7-7-7-7-7-7-2-2-2-
D-7h9-9--9-9p7-7-7-7-7-7-7-2-2-2-

XXBridgeXX
E-------------------------x16
B-------------------------
G-------------------------
D-----9-----5-----5-5-----      Both are prbly
A---9-----5-----5-----5---      /synth
D-9-----5-----5---------5-     /
2:16                          /
Its really hard to hear this /
at the end
E-14-12-10-9-10-9-10-14-12-10-9-------x7
B-------------------------------10-12-
G-------------------------------------
D-------------------------------------
A-------------------------------------
D-------------------------------------
2:32
E------------x16
B-------12---
G--11-11--11-
D-9--9-------
A------------
D------------
2:49
Once again, might be synth, its a bit hard to hear,
its while he says "If you can amputate my heart"
E-------------------------------------------------------
B-------------------------------------------------------
G-------------------------------------------------------
D-------------------------------------------------------
A-9-9-9-9-9-9-4-4-4-4-4-4-7-7-7-7-7-7-12-12-12-11-11-11-
D-9-9-9-9-9-9-4-4-4-4-4-4-7-7-7-7-7-7-12-12-12-11-11-11-
3:06
P.M...................................................
E--------------------------------------------------x2
B--------------------------------------------------
G--------------------------------------------------
D--------------------------------------------------
A-9-9-9-9-9-9-4-4-4-4-4-4-7-7-7-7-7-7-(4-4--4-4)---
D-9-9-9-9-9-9-4-4-4-4-4-4-7-7-7-7-7-7-(4-4--4-4)---
  ...................................
only play the (-)part the first time

E----
B----
G----
D----
A----
D-0
Volume swell into chorus/outro


Intro

Verse

Chorus

Verse

Chorus

Bridge

Outro w/chorus line 2 more times

This is my first tab, so lol yeah, but send any compliments, complaints,
and whatnot to nevermind758@aol.com, please, cuz itll help me improve, thanks

Almost there ...

Sign in to get your own page with links to favourite songs and more. You are just one click away...

Login with Facebook Login with Google