Log in

One click and you are in

Login with Facebook Login with Google

Why sign up and log in

Guitar Tabs Explorer
Project 86 tabs for Sioux lane spirits

Guitar tabs with lyrics

Band- Project 86
Song- Sioux Lane Spirits


Tuning- Dropped A chord diagramD MajorD

p.m. and X - Palm Mute
 - Slide down
                                Project 86 - Sioux Lane Spirits

      Intro- (Play twice through)
e|--------------------------------------------------------------------------|
A chord diagramBB|--------------------------------------------------------------------------|
A chord diagramG+G|--------------------------------------------------------------------------|
A chord diagramD MajorD|-0-8-7-0-10-12-0-----0-8-7-0-10-12-0-5-----0-8-7-0-10-12-0----0-2-3-5-3---|
A chord diagramA augmentedA|-0-8-7-0-10-12-0-----0-8-7-0-10-12-0-5-----0-8-7-0-10-12-0----0-2-3-5-3---|
A chord diagramD MajorD|-0-8-7-0-10-12-0-----0-8-7-0-10-12-0-5-----0-8-7-0-10-12-0----0-2-3-5-3---|


      Pre-Verse-
e|------------------------------------------------------------------------------------|
A chord diagramBB|------------------------------------------------------------------------------------|
A chord diagramG+G|---------9-9-9-9---9-9-9-9---9------------------------------------------------------|
A chord diagramD MajorD|-8-8-8-8-8-8-8-8---7-7-7-7---7------------------------------------------------------|
A chord diagramA augmentedA|-8-8-8-8-8-8-8-8---7-7-7-7---7------------------------------------------------------|
A chord diagramD MajorD|-8-8-8-8-8-8-8-8---7-7-7-7---7------------------------------------------------------|


      Verse- (Play twice through )
e|--------------------------------------------------------------------------|
A chord diagramBB|--------------------------------------------------------------------------|
A chord diagramG+G|--------------------------------------------------------------------------|
A chord diagramD MajorD|-0-0-0--2-2-2--5-5-5--3-3-0-3-0-3-0--8-8-8-8-8-8-8-8--7-7-7-7-7-7-7-7-----|
A chord diagramA augmentedA|-0-0-0--2-2-2--5-5-5--3-3-0-3-0-3-0--8-8-8-8-8-8-8-8--7-7-7-7-7-7-7-7-----|
A chord diagramD MajorD|-0-0-0--2-2-2--5-5-5--3-3-0-3-0-3-0--8-8-8-8-8-8-8-8--7-7-7-7-7-7-7-7-----|
  Palm-mute--------------------------------------------------------------->

    ----------------------------------------------------------------------|
    ----------------------------------------------------------------------|
    ----------------------------------------------------------------------|
    -0-0-0--2-2-2--5-5-5--3-3-0-3-0-3-0--8-8-8--7-7-7-7-7-7-7-7-----------|
    -0-0-0--2-2-2--5-5-5--3-3-0-3-0-3-0--8-8-8--7-7-7-7-7-7-7-7-----------|
    -0-0-0--2-2-2--5-5-5--3-3-0-3-0-3-0--8-8-8--7-7-7-7-7-7-7-7-----------|
     palm-mute---------------------------->|    --------------->

(Only palm-mute through the first two  8 s , then hit the third 8 normally,
  then palm-mute the rest)


      (This part below, is only for the second time through the verse)
     -------------------------|
     -------------------------|
     -------------------------|
     -8-8-8-----7-7-7---------|
     -8-8-8-----7-7-7---------|
     -8-8-8-----7-7-7---------|
    p.m-->|   p.m-->|
                                                                        (8-8-8    7-7-7)
     (Palm-mute the first two beats of each pair of the sets of three - (8-8-8  & 7-7-7)
                                                                        (8-8-8    7-7-7)
                                                                       p.m-->|  p.m-->|


       Chorus- (Play twice through )
e|-------------------------------------------------------------------------|
A chord diagramBB|-------------------------------------------------------------------------|
A chord diagramG+G|-------------------------------------------------------------------------|
A chord diagramD MajorD|-0-8-7-0-10-12-0---0-8-7-0-10-12-0-5---0-8-7-0-10-12-0---0-5-7-8-7-------|
A chord diagramA augmentedA|-0-8-7-0-10-12-0---0-8-7-0-10-12-0-5---0-8-7-0-10-12-0---0-5-7-8-7-------|
A chord diagramD MajorD|-0-8-7-0-10-12-0---0-8-7-0-10-12-0-5---0-8-7-0-10-12-0---0-5-7-8-7-------|

    ------------------------------------------------------------------------|
    ------------------------------------------------------------------------|
    ------------------------------------------------------------------------|
    -0-8-7-0-10-12-0---0-8-7-0-10-12-0-5---0-8-7-0-10-12-0---0-2-3-5-3------|
    -0-8-7-0-10-12-0---0-8-7-0-10-12-0-5---0-8-7-0-10-12-0---0-2-3-5-3------|
    -0-8-7-0-10-12-0---0-8-7-0-10-12-0-5---0-8-7-0-10-12-0---0-2-3-5-3------|



      Pre-Verse-
e|--------------------------------------|
A chord diagramBB|--------------------------------------|
A chord diagramG+G|---------9-9-9-9---9-9-9-9--9---------|
A chord diagramD MajorD|-8-8-8-8-8-8-8-8---7-7-7-7--7---------|
A chord diagramA augmentedA|-8-8-8-8-8-8-8-8---7-7-7-7--7---------|
A chord diagramD MajorD|-8-8-8-8-8-8-8-8---7-7-7-7--7---------|


      Verse-  (Play it exactly how I tabbed it above, in the first verse )
e|--------------------------------------------------------------------------|
A chord diagramBB|--------------------------------------------------------------------------|
A chord diagramG+G|--------------------------------------------------------------------------|
A chord diagramD MajorD|-0-0-0--2-2-2--5-5-5--3-3-0-3-0-3-0--8-8-8-8-8-8-8-8--7-7-7-7-7-7-7-7-----|
A chord diagramA augmentedA|-0-0-0--2-2-2--5-5-5--3-3-0-3-0-3-0--8-8-8-8-8-8-8-8--7-7-7-7-7-7-7-7-----|
A chord diagramD MajorD|-0-0-0--2-2-2--5-5-5--3-3-0-3-0-3-0--8-8-8-8-8-8-8-8--7-7-7-7-7-7-7-7-----|
  Palm-mute-------------------------------------------------------------->


    ------------------------------------------------------------------------------|
    ------------------------------------------------------------------------------|
    ------------------------------------------------------------------------------|
    -0-0-0--2-2-2--5-5-5--3-3-0-3-0-3-0--8-8-8--7-7-7-7-7-7-7-7-------------------|
    -0-0-0--2-2-2--5-5-5--3-3-0-3-0-3-0--8-8-8--7-7-7-7-7-7-7-7-------------------|
    -0-0-0--2-2-2--5-5-5--3-3-0-3-0-3-0--8-8-8--7-7-7-7-7-7-7-7-------------------|
     palm-mute---------------------------->|    ----------------->

(Only palm-mute through the first two  8 s , then hit the third 8 normally,
  then palm-mute the rest)


      (This part below, is only for the second time through the verse)
     -------------------------|
     -------------------------|
     -------------------------|
     -8-8-8-----7-7-7---------|
     -8-8-8-----7-7-7---------|
     -8-8-8-----7-7-7---------|
    p.m-->|   p.m-->|
                                                                        (8-8-8    7-7-7)
     (Palm-mute the first two beats of each pair of the sets of three - (8-8-8  & 7-7-7)
                                                                        (8-8-8    7-7-7)
                                                                       p.m-->|  p.m-->|


       Chorus- (Play twice through )
e|-------------------------------------------------------------------------|
A chord diagramBB|-------------------------------------------------------------------------|
A chord diagramG+G|-------------------------------------------------------------------------|
A chord diagramD MajorD|-0-8-7-0-10-12-0---0-8-7-0-10-12-0-5---0-8-7-0-10-12-0---0-5-7-8-7-------|
A chord diagramA augmentedA|-0-8-7-0-10-12-0---0-8-7-0-10-12-0-5---0-8-7-0-10-12-0---0-5-7-8-7-------|
A chord diagramD MajorD|-0-8-7-0-10-12-0---0-8-7-0-10-12-0-5---0-8-7-0-10-12-0---0-5-7-8-7-------|

--------------------------------------------------------------------|-----|
--------------------------------------------------------------------|-----|
--------------------------------------------------------------------|-----|      (0)
-0-8-7-0-10-12-0---0-8-7-0-10-12-0-5---0-8-7-0-10-12-0---0-2-3-5-3--|--0--|(Play (0) only second time through)
-0-8-7-0-10-12-0---0-8-7-0-10-12-0-5---0-8-7-0-10-12-0---0-2-3-5-3--|--0--|      (0)
-0-8-7-0-10-12-0---0-8-7-0-10-12-0-5---0-8-7-0-10-12-0---0-2-3-5-3--|--0--|


       Bridge-
e|-----------------------------------------------------------------------------------|
A chord diagramBB|-----------------------------------------------------------------------------------|
A chord diagramG+G|-9-9-9-9---X-X---9-9-9-9---X-X---9-9-9-9---9-9-9-9---X-X---9-9-9-9---X-X---9-9-9-9-|
A chord diagramD MajorD|-8-8-8-8---X-X---8-8-8-8---X-X---8-8-8-8---7-7-7-7---X-X---7-7-7-7---X-X---7-7-7-7-|
A chord diagramA augmentedA|-8-8-8-8---X-X---8-8-8-8---X-X---8-8-8-8---7-7-7-7---X-X---7-7-7-7---X-X---7-7-7-7-|
A chord diagramD MajorD|-8-8-8-8---X-X---8-8-8-8---X-X---8-8-8-8---7-7-7-7---X-X---7-7-7-7---X-X---7-7-7-7-|

     ------------|
     ------------|
     --9---------|
     --0---------|
     --0---------|
     --0---------|


             Bridge/Solo-

(This is where there needs to be two guitarists one to play the bridge,
 and one to play the solo...The bridge and the solo are played together...)


             Guitar #1- (Solo)
e|-------------------------------|
A chord diagramBB|-------------------------------|
A chord diagramG+G|-9-10-12-10-9-10-9-7-9-10-9----|  (Play twice through)
A chord diagramD MajorD|-------------------------------|
A chord diagramA augmentedA|-------------------------------|
A chord diagramD MajorD|-------------------------------|

             Solo Continued...
e|--4---7-4---7-4-4--------------------7---7-7-----|
A chord diagramBB|-5-5-5-5-5-5-5-5----9-9-9-7-7-7-9-9-9-9-9-9-9----|
A chord diagramG+G|-------------------------------------------------|
A chord diagramD MajorD|-------------------------------------------------|
A chord diagramA augmentedA|-------------------------------------------------|
A chord diagramD MajorD|-------------------------------------------------|

     ------------------7-7-7-----|
     -9-9-9-7-7-7-9-9-9-9-9-9----| (Play this, the second time through this part of the solo...)
     ----------------------------|
     ----------------------------|
     ----------------------------|
     ----------------------------|


        Guitar #2- (Bridge)          (Play the bridge four times through, while Guitar #1 plays the solo )
e|-----------------------------------------------------------------------------------|
A chord diagramBB|-----------------------------------------------------------------------------------|
A chord diagramG+G|-9-9-9-9---X-X---9-9-9-9---X-X---9-9-9-9---9-9-9-9---X-X---9-9-9-9---X-X---9-9-9-9-|
A chord diagramD MajorD|-8-8-8-8---X-X---8-8-8-8---X-X---8-8-8-8---7-7-7-7---X-X---7-7-7-7---X-X---7-7-7-7-|
A chord diagramA augmentedA|-8-8-8-8---X-X---8-8-8-8---X-X---8-8-8-8---7-7-7-7---X-X---7-7-7-7---X-X---7-7-7-7-|
A chord diagramD MajorD|-8-8-8-8---X-X---8-8-8-8---X-X---8-8-8-8---7-7-7-7---X-X---7-7-7-7---X-X---7-7-7-7-|


       Verse- (Play Verse four times through)
e|--------------------------------------------------------------------------|
A chord diagramBB|--------------------------------------------------------------------------|
A chord diagramG+G|--------------------------------------------------------------------------|
A chord diagramD MajorD|-0-0-0--2-2-2--5-5-5--3-3-0-3-0-3-0--8-8-8-8-8-8-8-8--7-7-7-7-7-7-7-7-----|
A chord diagramA augmentedA|-0-0-0--2-2-2--5-5-5--3-3-0-3-0-3-0--8-8-8-8-8-8-8-8--7-7-7-7-7-7-7-7-----|
A chord diagramD MajorD|-0-0-0--2-2-2--5-5-5--3-3-0-3-0-3-0--8-8-8-8-8-8-8-8--7-7-7-7-7-7-7-7-----|
   Palm-mute------------------------------------------------------------>

  (The fourth time through the verse, slowly let off Palm-muting )


(Play this part below the fourth time through the verse, NOT Palm-muting these last six chords at all )
     -------------------------|
     -------------------------|
     -------------------------|
     -8-8-8-----7-7-7---------|
     -8-8-8-----7-7-7---------|
     -8-8-8-----7-7-7---------|


       Chorus- (Play the chorus through, three times)
e|-------------------------------------------------------------------------|
A chord diagramBB|-------------------------------------------------------------------------|
A chord diagramG+G|-------------------------------------------------------------------------|
A chord diagramD MajorD|-0-8-7-0-10-12-0---0-8-7-0-10-12-0-5---0-8-7-0-10-12-0---0-5-7-8-7-------|
A chord diagramA augmentedA|-0-8-7-0-10-12-0---0-8-7-0-10-12-0-5---0-8-7-0-10-12-0---0-5-7-8-7-------|
A chord diagramD MajorD|-0-8-7-0-10-12-0---0-8-7-0-10-12-0-5---0-8-7-0-10-12-0---0-5-7-8-7-------|

    ------------------------------------------------------------------------|
    ------------------------------------------------------------------------|
    ------------------------------------------------------------------------|
    -0-8-7-0-10-12-0---0-8-7-0-10-12-0-5---0-8-7-0-10-12-0---0-2-3-5-3------|
    -0-8-7-0-10-12-0---0-8-7-0-10-12-0-5---0-8-7-0-10-12-0---0-2-3-5-3------|
    -0-8-7-0-10-12-0---0-8-7-0-10-12-0-5---0-8-7-0-10-12-0---0-2-3-5-3------|

        (The Outro gets played immediately after the chorus is done being played )

    Outro- (Play through twice)
e|-----------------------------------------|
A chord diagramBB|-----------------------------------------|
A chord diagramG+G|---------9-9-9-9---9-9-9-9--9------------|
A chord diagramD MajorD|-8-8-8-8-8-8-8-8---7-7-7-7--7------------|
A chord diagramA augmentedA|-8-8-8-8-8-8-8-8---7-7-7-7--7------------|
A chord diagramD MajorD|-8-8-8-8-8-8-8-8---7-7-7-7--7------------|

(Play the part below after the second time through the Outro...also, slowly let the last chord fade out )
        ---------------------------------|
        ---------------------------------|
        ---------------------------------|
        --0------------------------------|
        --0------------------------------|

Almost there ...

Sign in to get your own page with links to favourite songs and more. You are just one click away...

Login with Facebook Login with Google