Log in

One click and you are in

Login with Facebook Login with Google

Why sign up and log in

Guitar Tabs Explorer
Project 86 tabs for Shelter me

Guitar tabs

Shelter Me
Project 86

Sweet song.  Very simple.
Drop A chord diagramD MajorD

*-PALM MUTE
Intro (low-fi):
E--------------------------------------------------------|
B--------------------------------------------------------|
G--------------------------------------------------------|
D--5-0/1/0---3-5--0/1/0---8-5--0/1/0---3-5--0/1/0---8-5--|
A--5-------1-3-5--------1-8-5--------1-3-5--------1-8-5--|
D--5---------3-5----------8-5----------3-5----------8-5--|

E-----------------------------------------------------|
B-----------------------------------------------------|
G-----------------------------------------------------|
D--0/1/0----3-5--0/1/0---8-5--0/1/0---3-5--0/1/0---8--|
A---------1-3-5--------1-8-5--------1-3-5--------1-8--|
D-----------3-5----------8-5----------3-5----------8--|

Then it's normal, repeat the same intro, except fall end on

E-----
B-----
G-----
D--5--
A--5--
D--5--

Then do a fall.  Don't play on the verse.  I can't tell what the high
pitched noise is going into the pre-chorus, but it's some kind of effect.

Pre-Chorus:
E------------------------------------------------------|
B------------------------------------------------------|
G------------------------------------------------------|
D--5-0/1/0---3-5--0/1/0---8-5--0/1/0---3-5-8-8-8--8-8--|
A--5-------1-3-5--------1-8-5--------1-3-5-8-8-8--8-8--|
D--5---------3-5----------8-5----------3-5-8-8-8--8-8--|

Chrous (x2):
E-------------------------------------------------------------------------------|
B---------------3/4/3----------------3/4/3--------------3/4/3-------------------|
G-------------------------------------------------------------------------------|
D--5-*5-*5-1-3-0------5-*5-*5-1-0-0--------5-*5-*5-1-3-0------5-*5-*5-1-3-5-8-7-|
A--5-*5-*5-1-3-0------5-*5-*5-1-0-0--------5-*5-*5-1-3-0------5-*5-*5-1-3-5-8-7-|
D--5-*5-*5-1-3-0------5-*5-*5-1-0-0--------5-*5-*5-1-3-0------5-*5-*5-1-3-5-8-7-|


Verse (don't play)


Pre-Chorus (except play the last chord, the 8's, eight times instead of five)

Chrous (x2)


Bridge (x2):
E------------------------------------------------------------------------|
B------------------------------------------------------------------------|
G------------0-0-0-0-0/2-2-2-2/0-0-0-0-0---------------------------------|
D--3-3-3-3-3---------------------------3-3-3-3-3-3-3-0-0-----------------|
A--------------------------------------------------------3/5-5-5-3/5-5-5-|
D------------------------------------------------------------------------|

Low-Fi Bridge:
E------------------------------------------------------|
B------------------------------------------------------|
G------------------------------------------------------|
D--5-0/1/0---3-5--0/1/0---8-5--0/1/0---3-5--0/1/0----8-|
A--5-------1-3-5--------1-8-5--------1-3-5--------1--8-|
D--5---------3-5----------8-5----------3-5-----------8-|

At 2:19
E--------------------------------------------------------|
B--------------------------------------------------------|
G--------------------------------------------------------|
D--5-0/1/0---3-5--0/1/0---8-5--0/1/0---3-5--0/1/0---8-5--|
A--5-------1-3-5--------1-8-5--------1-3-5--------1-8-5--|
D--5---------3-5----------8-5----------3-5----------8-5--|

E-----------------------------------------------------|
B-----------------------------------------------------|
G-----------------------------------------------------|
D--0/1/0----3-5--0/1/0---8-5--0/1/0---3-5-8-8-8--8-8--|
A---------1-3-5--------1-8-5--------1-3-5-8-8-8--8-8--|
D-----------3-5----------8-5----------3-5-8-8-8--8-8--|

Chrous (x2)


Ending:
E------------------------------------------------|
B--|play-this-part-x3----|-----------------------|
G---------------------------------------------7--|
D--5-*5-*5-1-3-0-*0-*0-*0--5-*5-*5-1-3-5-8-7--5--|
A--5-*5-*5-1-3-0-*0-*0-*0--5-*5-*5-1-3-5-8-7--5--|

Almost there ...

Sign in to get your own page with links to favourite songs and more. You are just one click away...

Login with Facebook Login with Google