Log in

One click and you are in

Login with Facebook Login with Google

Why sign up and log in

Guitar Tabs Explorer
Project 86 tabs for Pipe dream

Guitar tabs

intro:

e---------------------------------|
b---------------------------------|
g---------------------------------|
d---------------------------------|
a---------------------------------|
d-0-14-0-14-0-14-0-14-15-15-15-15-|

verse:

e---------------------|
b---------------------|
g---------------------|
d-0-2-x-2-0-2-2-2-2-3-|
a-0-2-x-2-0-2-2-2-2-3-|
d-0-2-x-2-0-2-2-2-2-3-|


prechorus:

e--------------------------------------------|
b--------------------------------------------|
g--------------------------------------------|
d-4h5-x-5p4--4h5-x-5p4--4h5-x-5p4--4h5-x-5p4-|
a-4h5-x-5p4--4h5-x-5p4--4h5-x-5p4--4h5-x-5p4-|
d-4h5-x-5p4--4h5-x-5p4--4h5-x-5p4--4h5-x-5p4-|


chorus:

e--------------|
b--------------|
g--------------|
d-6--3-5-0-3-5-|
a-6--3-5-0-3-5-|
d-6--3-5-0-3-5-|


bridge back to chorus:

e-------------------------|
b-------------------------|
g-------------------------|
d-------------------------|
a-------------------------|
d-0-2-0-2-0-2-0-2-3-3-3-3-|

before bridge:

e------------------------|
b------------------------|
g------------------------|
d-0-0-0-00---------------|
a-0-0-0-00---------------|
d-0-0-0-00-11-12-11-10/7-|
  * * * **

last part of song just repeat this:

e-----------------------------|
b-----------------------------|
g-----------------------------|
d-5--5-5--0--0-0--8-8-8-8-8-8-|
a-5--5-5--0--0-0--8-8-8-8-8-8-|

Almost there ...

Sign in to get your own page with links to favourite songs and more. You are just one click away...

Login with Facebook Login with Google