Log in

One click and you are in

Login with Facebook Login with Google

Why sign up and log in

Guitar Tabs Explorer
Project 86 tabs for Open hand

Guitar tabs

SONG: Open Hand
BAND: Project 86
ALBUM: Drawing Black Lines


TUNING: Drop A chord diagramD MajorD (D-A-D-G-B-E)
Intro

|--------------------------------------------|
|--------------------------------------------|
|--------------------------------------------|
|--3-2-0-2---------2-2-2-2-2-2-2-2-2-2-2-----|
|--3-2-0-2---------2-2-2-2-2-2-2-2-2-2-2-----|
|--3-2-0-2---------2-2-2-2-2-2-2-2-2-2-2-----|
                P.M.----------------------


Verse

|--------------------------------------------|
|--------------------------------------------|
|--------------------------------------------|
|--3-2-0-2-2-2---3-2-0-2-2-2-2---------------|
|--3-2-0-2-2-2---3-2-0-2-2-2-2---------------|
|--3-2-0-2-2-2---3-2-0-2-2-2-2---------------|


|--------------------------------------------|
|--------------------------------------------|
|--------------------------------------------|
|--3-2-0-2-2-2---3-2-0-2-2-2-x-x-------------|
|--3-2-0-2-2-2---3-2-0-2-2-2-x-x-------------|
|--3-2-0-2-2-2---3-2-0-2-2-2-x-x-------------|

Chorus

|--------------------------------------------|
|--------------------------------------------|
|--5-----------------------------------------|
|--5--(let ring)--3-2-0-2--3-2-0-2--0-2-0-2--|
|--3--------------3-2-0-2--3-2-0-2--0-2-0-2--|
|-----------------3-2-0-2--3-2-0-2--0-2-0-2--|
            P.M.--------------------------

Part after first Chorus....
|--------------------------------------------|
|--------------------------------------------|
|--------------------------------------------|
|--------------------------------------------|
|--------------------------------------------|
|--3-2-0-2~--3-2-0-2~--3-2~------------------|

Part after second Chorus....

|-----------------------------------------------------|
|---------(twice)-------------------------------------|
|-----------------------------5-5-5-5-5-5-5-5-5-5-----|
|--3-2-0-2--3-2-0-2--2-3-0----5-5-5-5-5-5-5-5-5-5-----|
|--3-2-0-2--3-2-0-2--2-3-0----3-3-3-3-3-3-3-3-3-3-----|
|--3-2-0-2--3-2-0-2--2-3-0----------------------------|
          (twice)


Bridge

First Guitar(Rhythm) (not 100% on this part)
|--------------------------------------------|
|--------------------------------------------|
|--------------------------------------------|
|--2-3-0-0-0--2-3-0-0-5----------------------|
|--2-3-0-0-0--2-3-0-0-5----------------------|
|--2-3-0-0-0--2-3-0-0-5----------------------|


Second Guitar (hard to hear but it's there)
|--------------------------------------------|
|--------------------------------------------|
|--9-9-9-9-9/7-7-7-7/9-9-9-9/12-12-12/-------|
|--------------------------------------------|
|--7-7-7-7-7/5-5-5-5/7-7-7-7/10-10-10/-------|
|--------------------------------------------|


|-------------------------------------------------------------------|
|-------------------------------------------------------------------|
|--5-5-5-5-5-5-5-5-5-5-5-5-5-5-5-5-5-5-5-5-5-5-5--5^--(bend)--------|
|--5-5-5-5-5-5-5-5-5-5-5-5-5-5-5-5-5-5-5-5-5-5-5--x-----------------|
|--3-3-3-3-3-3-3-3-3-3-3-3-3-3-3-3-3-3-3-3-3-3-3--------------------|
|-------------------------------------------------------------------|


Outro

First Guitar(various bending on the 5)
|------------------------------------------------------------------------------|
|------------------------------------------------------------------------------|
|--5-5-5-5-5-5-5-5-5-5-5-5-5-5-5-5-5-5-5-5-5-5-5-5-5-5-5-5-5-5-5-5-5-5-5/0-----|
|------------------------------------------------------------------------------|
|--3-3-3-3-3-3-3-3-3-3-3-3-3-3-3-3-3-3-3-3-3-3-3-3-3-3-3-3-3-3-3-3-------------|
|------------------------------------------------------------------------------|


Second Guitar(Rhythm)
|--------------------------------------------|
|--------------------------------------------|
|--------------------------------------------|
|--3-2-0-2--3-2-0-2--2-3-0-------------------|
|--3-2-0-2--3-2-0-2--2-3-0-------------------|

Almost there ...

Sign in to get your own page with links to favourite songs and more. You are just one click away...

Login with Facebook Login with Google