Log in

One click and you are in

Login with Facebook Login with Google

Why sign up and log in

Guitar Tabs Explorer
Project 86 tabs for A toast to my former self

Guitar tabs

Dropped A chord diagramD MajorD tuning


Intro:
Play the A chord diagramG+G (555xxx) over and over
Chorus: 4x
E-----------------------------|
B-----------------------------|
G-----------------------------|
D-5-5--3-3--6-6--5-5--3-3-6-6-|
A-5-5--3-3--6-6--5-5--3-3-6-6-|
E-5-5--3-3--6-6--5-5--3-3-6-6-|


Verse: Weird effect on Randy's guitar here. Sounds like a messed up wah to me?
E-----------------|
B-----------------|
G-----------------|
D-----------------|
A-----------------|
E-5-3-0-3-6-5-3-0-|


Chorus: (Guitar one is same as above Chorus)
Guitar 2:
E-------------------|
B-------------------|
G-12-10-13-12-10-13-|
D-------------------|
A-10--8-11-10--8-11-|
E-------------------|


Chorus 2: Guitar 1:
E-------------------------|
B-------------------------|
G-------------------------|
D-0--3--5--3--5-3-1-1-1-1-|
A-0--3--5--3--5-3-1-1-1-1-|
E-0--3--5--3--5-3-1-1-1-1-|

Guitar 2: With little variation on the A chord diagramD#D#
E-------------------------------|---------------------------------|
B-------------------------------|---------------------------------|
G-7--10--12--10--12-10--8-8-8-8-|-7--10--12--10--12-10--8-8-10-10-|
D-------------------------------|---------------------------------|
A-5---8--10---8--10-8---6-6-6-6-|-5---8--10---8--10-8---6-6--6--6-|
E-------------------------------|---------------------------------|

(Chorus)
(Verse)

Almost there ...

Sign in to get your own page with links to favourite songs and more. You are just one click away...

Login with Facebook Login with Google