Log in

One click and you are in

Login with Facebook Login with Google

Why sign up and log in

Guitar Tabs Explorer
John Prine tabs for In spite of ourselves

Guitar tabs

Tabbed By: Dan Ascheman(diggityd@hotmail.com)

Capo 2nd fret
Standard tuning

   (A chord diagramC majorC)
----3^0----0------------------0------------------------------------------
-----------------3----1-1--3---------------------------------------------
---------0---------0-----------------------------------------------------
-------------------------------------------------------------------------
----3---------3-------3-3--3-----(3)-------------------------------------
-------------------------------------------------------------------------

   (A chord diagramC majorC)
----3^0----0------------------0------------------------------------------
-----------------3----1-1--3---------------------------------------------
---------0---------0-----------------------------------------------------
-------------------------------------------------------------------------
----3---------3-------3-3--3-----(3)-------------------------------------
-------------------------------------------------------------------------

  (A chord diagramFF)                        (A chord diagramC majorC)
------------------------------0-----0---------------0--------------------
----------1---------3--1^3--------------3----1-1--3----------------------
--0^2--2----2----2---------2-----0--------0-----------(0)----------------
--3-----------3----------------------------------------------------------
------------------------------3-------3------3-3--3----------------------
-------------------------------------------------------------------------

  (A chord diagramG+G)
---0--------------0--------------3----3------------------------------
-----3----0----------3---0----------------0------1-------3------1----
------------0--------------0--------0--------0-------0-----0---------
---------------------------------------------------2---2-----2-------
-------------------------------------------------3--------------3----
---3----3------3--3-----3-----3--3------3----------------------------

Other versions of In Spite Of Ourselves

In spite of ourselvesChords
In spite of ourselves ukuleleChords

Almost there ...

Sign in to get your own page with links to favourite songs and more. You are just one click away...

Login with Facebook Login with Google