Log in

One click and you are in

Login with Facebook Login with Google

Why sign up and log in

Guitar Tabs Explorer
Princess Chelsea bass tabs for I love my boyfriend

I Love My Boyfriend bass tab by Princess Chelsea

Princess Chelsea bass tabs for I love my boyfriend

Bass tabs

Tuning: Standard (E A D G)

I Love My Boyfriend - Princess Chelsea
Intro:

G|---------------------------------------------------------------------------|
D|---------------------------------------------------------------------------|
A|---------------------------------------------------------------------------|
E|6--6-6/10-10-10\3--3-3-3-3-3-5-5-------------------------------------------| x4


Verse:

G|---------------------------------------------------------------------------|
D|---------------------------------------------------------------------------|
A|---------------------------------------------------------------------------|
E|6--6-6/10-10-10\3--3-3-3-3-3-5-5-------------------------------------------| x4


Refrain:

G|---------------------------------------------------------------------------|
D|---2~-4~-------------------------------------------------------------------|
A|2~-------0-----------------------------------------------------------------|
E|---------------------------------------------------------------------------| x4


Chorus:

G|---------------------------------------------------------------------------|
D|---------------------------------------------------------------------------|
A|---------------------------------------------------------------------------|
E|6--6-6/10-10-10\3--3-3-3-3-3-5-5-------------------------------------------| x4


Refrain:

G|---------------------------------------------------------------------------|
D|---------------------------------------------------------------------------|
A|---------------------------------------------------------------------------|
E|6--6-6/10-10-10\3--3-3-3-3-3-3-3-------------------------------------------| x4


Bridge:

G|---------------------------------------------------------------------------|
D|---------------------------------------------------------------------------|
A|---------------------------------------------------------------------------|
E|6--6-6/10-10-10\3--3-3-3-3-3-5-5-------------------------------------------| x5

G|---------------------------------------------------------------------------|
D|---------------------------------------------------------------------------|
A|---------------------------------------------------------------------------|
E|6--6-6/10-10-10\3----------------------------------------------------------|


(No bass in first chorus after bridge)


Chorus and refrain:

G|---------------------------------------------------------------------------|
D|---------------------------------------------------------------------------|
A|---------------------------------------------------------------------------|
E|6--6-6/10-10-10\3--3-3-3-3-3-5-5-------------------------------------------| x4


Outro:

G|---------------------------------------------------------------------------|
D|---------------------------------------------------------------------------|
A|---------------------------------------------------------------------------|
E|6--6-6/10-10-10\3--3-3-3-3-3-5-5-------------------------------------------| x4


************************************

| /  Slide up
| \  Slide down
| ~  Let note ring

************************************

Almost there ...

Sign in to get your own page with links to favourite songs and more. You are just one click away...

Login with Facebook Login with Google