Log in

One click and you are in

Login with Facebook Login with Google

Why sign up and log in

Guitar Tabs Explorer
Primus tabs for Too many puppies

Guitar tabs

Opening  (slid up to next note)
    [--------------------------]
    [--------------------------]
    [--------------------------]
    [---4-5-6------------------]
    [---3-4-5------------------]
    [--------------------------]x8
Chores
[-------]
[-------]
[-------]
[5-66-7-]
[3-44-5-]
[-------]x1
Verse
[------------------]
[------------------]
[------------------]
[-----------5-666-7]
[-4-5-4-5-4-3-444-5]
[-2-3-2-3-2--------]x4
_________________
Repeat Chores x4|
Repeat Verse x2 |
                |
Repeat Cores x2 |
Repeat Veres x4 |
________________| reapet boxed part until song ends

ⓘ Guitar tab for 'Too Many Puppies' by Primus, an alternative metal band formed in 1984 from San Francisco, California, USA

Almost there ...

Sign in to get your own page with links to favourite songs and more. You are just one click away...

Login with Facebook Login with Google