Log in

One click and you are in

Login with Facebook Login with Google

Why sign up and log in

Guitar Tabs Explorer
Primus bass tabs for Too many puppies

Bass tabs

Too Many Puppies (Frizzle Fry)


Main Part:

    1 e & a 2 & 3 & 4 &

G------5h6-6-6--7----------------
D------5-5-5-5--5----------------
A--------------------------------
E------------------2-3-2-3-2-----
              ^
    strum       |
              sometimes this is an A (5th fret)
Middle Part:

     1   2   3   4   1   2   3  4

G--------9s7-7-6s7-7-7s9-9-9s7-7-7s6-6-6s7-7s6------
D--------7s5-5-4s5-5-5s7-7-7s5-5-5s4-4-4s5-5s4------
A---------------------------------------------------
E---------------------------------------------------
                       ^
                       |
                     sometimes this is A-E (7th-9th)

This is (I think) the whole tune, except sometimes the F#-G stomp
thingy gets left off the above 'main part'.

Just listen to it and figure out the form.

Almost there ...

Sign in to get your own page with links to favourite songs and more. You are just one click away...

Login with Facebook Login with Google