Log in

One click and you are in

Login with Facebook Login with Google

Why sign up and log in

Guitar Tabs Explorer
Primus bass tabs for The heckler

Bass tabs with lyrics

Tuning: Standard (E A D G)

Difficulty: Intermediate
Intro: (Guitar intro for four measures, then enters fretless bass)
    (fingerstyle)

G|-----0--(7)/12~~------------------0--(7)/12~~---12h14-12~~~----------------|
D|---------------------------------------------------------------------------|
A|---------------------------------------------------------------------------|
E|---------------------------------------------------------------------------|

G|-----/14\13/14\13/14\13----16\---------------------------------------------|
D|---------------------------------------------------------------------------|
A|---------------------------------------------------------------------------|
E|---------------------------------------------------------------------------|


Verse: (fingerstyle)

G|----9-----11-----10-----(10)/14---12---------------------------------------|
D|----------9-----------------------------14\--------------------------------|
A|-----------------8---------------------------------------------------------|
E|----0----------------------------------------------------------------------|

G|----9-----11-----10--------------------------------------------------------|
D|----------9----------------------------------------------------------------|
A|-----------------8---------------------------------------------------------|
E|----0----------------------------------------------------------------------|

G|----9-----11-----10-----(10)/14---12---------------------------------------|
D|----------9-----------------------------14\--------------------------------|
A|-----------------8---------------------------------------------------------|
E|----0----------------------------------------------------------------------|

G|----9-----11-----10--------------------------------------------------------|
D|----------9----------------------------------------------------------------|
A|-----------------8---------------------------------------------------------|
E|----0----------------------------------------------------------------------|

G|----9-----11-----10-----(10)/14---12---------------------------------------|
D|----------9-----------------------------14\--------------------------------|
A|-----------------8---------------------------------------------------------|
E|----0----------------------------------------------------------------------|

G|----9-----11-----10--------------------------------------------------------|
D|----------9----------------------------------------------------------------|
A|-----------------8---------------------------------------------------------|
E|----0----------------------------------------------------------------------|

G|----9-----11-----10-----(10)/14---12---------------------------------------|
D|----------9-----------------------------14\--------------------------------|
A|-----------------8---------------------------------------------------------|
E|----0----------------------------------------------------------------------|

G|----9-----11-----10--------------------------------------------------------|
D|----------9----------------------------------------------------------------|
A|-----------------8---------------------------------------------------------|
E|----0----------------------------------------------------------------------|

Chorus: (swith from fingerstyle to slap/pop, up the tempo)

G|---------------------------------------------------------------------------|
D|----7-------------------------7--------5--------8-----7--------------------|
A|---------------------------------------------------------------------------|
E|------0--0--0->0--------x--x-----x--x-----x--x-----x-----0--0--0->0--------|

G|---------------------------------------------------------------------------|
D|---------7--------5--------8-----7------------------------7--------5-------|
A|---------------------------------------------------------------------------|
E|---x--x-----x--x-----x--x-----x-----0--0--0->0------x--x-----x--x-----x--x-|

   rest for a measure before repeating x3 (it's just a matter of opinion!)
G|------------------------|--------------------------------------------------|
D|---8-----7--------------|-x3-----------------------------------------------|
A|------------------------|---------0h5h7--0h5h7--5/10~~---------------------|
E|------x-----0--0--0->0--|--------------------------------------------------|
                (^^^the outro for the third repeat^^^)


Intro x1

Verse x1

Chorus x1

Verse x1

Chorus variation (see below)

On the second time playing the chorus, the outro hammer ons are repeated three times (0h5h7 0h5h7 x3) before
the last two notes. Then the main chorus is played one more time with the song ending on the first rest,
without repeating.

I'm fairly sure I've got the tone of the song 100% accurate, please leave feedback with any comments or
variations you might have

************************************

| x  Dead note
| h  Hammer-on
| p  Pull-off
| >  Accented note
| /  Slide up
| \  Slide down
| ~  Vibrato

************************************

Almost there ...

Sign in to get your own page with links to favourite songs and more. You are just one click away...

Login with Facebook Login with Google