Log in

One click and you are in

Login with Facebook Login with Google

Why sign up and log in

Guitar Tabs Explorer
Primus bass tabs for The devil went down to georgia

The Devil Went Down To Georgia bass tab - Primus

Primus bass tabs for The devil went down to georgia

Bass tabs

Tuning: Standard (E A D G)

Difficulty: Novice
Tuning: EADG


NOTE: This song is played originally on an upright bass but a fretless bass works quite well


Intro:

G|-------------------------------------------------|
D|-------------------------------------------------|
A|-5---5---3---3---5-3-1-0-----3--0-3-5~~~-------5-|
E|---5---5---3---3---------3-5---------------------|


Verse 1:

G|---------------------------|-----------------------------|
D|---------------------------|-----------------------------|
A|-5-0-----------------------|-5-----------------5---------|
E|---------------------------|-----------------------------|

G|---------------------------|-----------------------------|
D|---------------------------|-----------------------------|
A|-0-3-5~~~------------------|-5---------------------------|
E|---------------------------|-----------------------------|

G|---------------------------|
D|---------------------------|
A|-0-3-5~~~----------5-------|
E|---------------------------|

Chorus:

G|------------------------------------------------------------|
D|------------------------------------------------------------|
A|-0-3-5-5---5---3---3-----5---5-5---5---3---3----------------|
E|---------5---5---3---3-3---3-----5---5---3---3-5~~--5-3-1-0-|


Bridge:

G|--------------------------------------------------|
D|--------------------------------------------------|
A|-5---5---3---3---5-3-1-0-----3--0-3-5~~~--------5-|
E|---5---5---3---3---------3-5----------------------|


Verse 2:

G|---------------------------|-----------------------------|
D|---------------------------|-----------------------------|
A|-5-------------------------|-5-----------------5---------|
E|---------------------------|-----------------------------|


G|---------------------------------------------------------------|
D|---------------------------------------------------------------|
A|-0-3-5~~~~~----------------------------------------------------|
E|---------------------------------------------------------------|

G|-------------------------------|-------------------------------|
D|-------------------------------|-------------------------------|
A|-5-------3-5-3-----------------|-5-------3-5-3-----------------|
E|---0-3-5-------5-5-0-3-5\--3-0-|---0-3-5-------5-5-0-3-5\--3-0-|

G|-------------------------------|---------------------------------|
D|-------------------------------|---------------------------------|
A|-5-------3-5-3-----------------|-5-------3-5-3-----------0-3-4-5-|
E|---0-3-5-------5-5-0-3-5\--3-0-|---0-3-5-------5-5-0-3-5---------|

G|-------------------------------|-------------------------------|
D|-------------------------------|-------------------------------|
A|-5-------3-5-3-----------------|-5-------3-5-3-----------------|
E|---0-3-5-------5-5-0-3-5\--3-0-|---0-3-5-------5-5-0-3-5\--3-0-|

G|-------------------------------|-----------------------------|
D|-------------------------------|-----------------------------|
A|---------------3--0-3-5~~~-----|-0-3-5~~~~-------------------|
E|-3-0-3-5-5-0-5-----------------|-----------------------------|


Verse 3:

G|---------------------------|---------------------------|
D|---------------------------|---------------------------|
A|-5-------------------------|-5-------------------------|
E|---------------------------|---------------------------|


G|----------------------|-----------------------|
D|----------------------|-----------------------|
A|-5~~~-------5-5~~~----|-3~~~--------3-3~~~----|
E|----------------------|-----------------------|

G|----------------------|-----------------------|
D|----------------------|-----------------------|
A|-5~~~-------5-5~~~----|-3~~~--------3-3~~~----|
E|----------------------|-----------------------|

G|---------------------------------|-----------------------------------|
D|---------------------------------|-----------------------------------|
A|-5---5---3---3---5---5---3---3---|-5---5---3---3---5~~~-5~~~---------|
E|---5---5---3---3---5---5---3---3-|---5---5---3---3-------------------|

G|--------------------|--------------------------|
D|--------------------|--------------------------|
A|-0-3-5~~~~~---------|-0-3-5~~~~~---------------|
E|--------------------|--------------------------|


Verse 4:

G|---------------------------|---------------------------|
D|---------------------------|---------------------------|
A|-5-------------------------|-5-------------------------|
E|---------------------------|---------------------------|

G|---------------------------|---------------------------|
D|---------------------------|---------------------------|
A|-5-------------------------|-5-------------------------|
E|---------------------------|---------------------------|


Outro:

G|----------------------|-----------------------|
D|----------------------|-----------------------|
A|-5~~~-------5-5~~~----|-3~~~--------3-3~~~----|
E|----------------------|-----------------------|

G|----------------------|-----------------------|
D|----------------------|-----------------------|
A|-5~~~-------5-5~~~----|-3~~~--------3-3~~~----|
E|----------------------|-----------------------|

G|---------------------------------|----------------------------|
D|---------------------------------|----------------------------|
A|-5---5---3---3---5---5---3---3---|-5---5---3---3---5-3-1-0~~--|
E|---5---5---3---3---5---5---3---3-|---5---5---3---3------------|

G|----------------------|--------------------|
D|----------------------|--------------------|
A|-5--3-1-0----5--3-1-0-|-5-3-1-0--------5-5-|
E|----------------------|----------3-5-------|


************************************

| \  Slide down
| ~  Hold Note

************************************

Almost there ...

Sign in to get your own page with links to favourite songs and more. You are just one click away...

Login with Facebook Login with Google