Log in

One click and you are in

Login with Facebook Login with Google

Why sign up and log in

Guitar Tabs Explorer
Primus tabs for Sinister exaggerator

Guitar tabs with lyrics

Album: Miscellaneous Debris

Guitar transcribed by CAM.


Here's a cool Primus song originally done by The Residents.
Play it along with the song to piece it all together.
Parts of this song involve turning the volume up after
hitting the strings. I'll mark this with:   v>
/ =slide up
\ =slide down
v =vibrato


The verse involves fast-picking. Here, to same room, I'll only
give you the notes to hit. Repeat as necessary.


Verse:
e--------------------------12--------------------------------
B------------------------------------------------------------
G---12----------9--------------------------------------------
D--------------------------------------11--------------------
A------------------------------------------------------------
E------------------------------------------------------------



Chorus:
e------------------------------------------------------------
B------------------------------------------------------------
G------------------------------------------------------------
D--12--14/15--17-18\17-15/17-14--12--14/15--17/18------------
A--11--13/14--16-17\16-14/16-13--11--13/14--16/17------------
E------------------------------------------------------------

e------------------------------------------------------------
B------------------------------------------------------------
G------------------------------------------------------------
D--12--14/15--17-18\17-15/17-14--12--14/15--17/20------------
A--11--13/14--16-17\16-14/16-13--11--13/14--16/19------------
E------------------------------------------------------------


Verse a couple times.


During the singing, you can produce a similar guitar effect
by using an echo or delay pedal.  Turn the volume down about
halfway and pick the low A chord diagramE MajorE string with a fingernail right
infront of the bridge.
                            v                         v>
e------------------------------------------------|----10------
B------------------------------------------------|------------
G------------------------------------------------|------------
D------------------------------------------------|------------
A------------------------------------------------|------------
E---------------------------6--------------------|------------


Play the verse repeatedly to end the song.

Comments? groundwurk@hotmail.com

Almost there ...

Sign in to get your own page with links to favourite songs and more. You are just one click away...

Login with Facebook Login with Google