Log in

One click and you are in

Login with Facebook Login with Google

Why sign up and log in

Guitar Tabs Explorer
Primus tabs for Scissor man

Guitar tabs with lyrics

group:PRIMUS
album:Rhinoplasty
song title: SCISSOR MAN

   Listen, i did my best on this tab and this is the first one i have ever
submitted.Plus, I haven't even been playing guitar for a year yet so this is
pretty cool. Ok, here it is.Well, most of it. 8-Þ

PART 1
E:-----------------------------------------------------------
B:-3-0-1-0--0---0------0------0-------0---------------
G:-----------2---0-----------------------------------------
D:--------------------0-2----2-0---0-2----2-0---------
A:---------------------------------------------------------
E:----------------------------------------------------------
After this part you just do what you hear him doing, then comes this part....

PART 2
E:---------------------------------------------------------
B:-----4----4----4----4--------------------------------
G:--------------------------------------------------------
D:--1----------------------0-----------------------------
A:--------3----1----3-------------------------------------
E:---------------------------------------------------------

Then you do the same "ticky ticky" thing AGAIN and then comes this part...

PART 3
E:----------------------------------------------------------------------------
B:--------1-------3-----------------------------------------------------------
G:-----1---1---2---2----------------------------------------------------------
D:--1---------0--------0------------------------------------------------------
A:--------------------------5-4-5-5-5-----------------------------------------
E:----------------------------------------------------------------------------

you do part3 twice and then comes part 4.

PART 4

E:--3-4-3-0-------3-------------
B:-------------------3-------------
G:-------------5-------4-5-4-5----
D:-----------------------------------
A:------------------------------------
E:-------------------------------------

well, thats all i have figured out so far. remember, i'm only 12 and havent
been playing  for even a year yet. so please e-mail me at wjb89227 for
comments,suggestions and stuff like that. thanx. :-Þ

Almost there ...

Sign in to get your own page with links to favourite songs and more. You are just one click away...

Login with Facebook Login with Google