Log in

One click and you are in

Login with Facebook Login with Google

Why sign up and log in

Guitar Tabs Explorer
Primus tabs for Pork chops little ditty

Guitar tabs

primus
pork chop's little ditty
off of pork soda
ben_fico@yahoo.com
e|---------------11h13-11---------------
b|11h13-13-11-13----------13-11---------
g|------------------------------13-10---
d|------------------------------------13
a|--------------------------------------
e|--------------------------------------

e|------------------11h13-11~-----------
b|11h13-13-11-11h13---------------------
g|--------------------------------------
d|--------------------------------------
a|--------------------------------------
e|--------------------------------------


repeat 2x


e|---13-15-16-16-16-13----------13-----
b|16-------------------16-13-16---16-16
g|-------------------------------------
d|-------------------------------------
a|-------------------------------------
e|-------------------------------------

e|---13-15-16-16-16-13-------
b|16-------------------16-13-
g|---------------------------
d|---------------------------
a|---------------------------
e|---------------------------

e|---13-15-16-16-16-13----------13-----
b|16-------------------16-13-16---16-16
g|-------------------------------------
d|-------------------------------------
a|-------------------------------------
e|-------------------------------------

e|13----------------16-16----13-15-16
b|---16-13----------------16---------
g|---------15-13-13------------------
d|-----------------------------------
a|-----------------------------------
e|-----------------------------------

__________________________________

Almost there ...

Sign in to get your own page with links to favourite songs and more. You are just one click away...

Login with Facebook Login with Google