Log in

One click and you are in

Login with Facebook Login with Google

Why sign up and log in

Guitar Tabs Explorer
Primus bass tabs for Master of puppets

Bass tabs

Music by Metallica

__________________________________________________
--------------------------------------------------
"Master Of Puppets" from Woodstock '94
__________________________________________________
--------------------------------------------------
Tabbed By Christopher Preston
	Les played this at Woodstock '94 and on the bootleg "You Can't Party
Without Me" as an encore. It was originally done by Metallica.

|--------------|------------------|
|--------------|------------------|
|--------------|------------------|
|-0/--/12------|-12-12-12---------|

|-------------------------------------------------|
|-------------------7-6-5-------------------------|
|------7-----6------5-4-3-----2-----1-------------|
|-0--0---0-X----0-0-------0-0---0-X--0-X--5-4-3---|


|---------------------------------------------------------------------|
|---------------------------------------------------------------------|
|-----2---3---4---3---2-2-----2---3-----------------------------------|
|-X-X---X---X---X---X-----X-X---X---X--3\2-X-3\2-X-3\2-3\2-X-3\2-3\2--|


|---------------------------------------|
|------20-----20------20------20/-------|
|---19---X-19----X-19----X-19-----------|
|-0---------------------------------0---|
			      Bend

Almost there ...

Sign in to get your own page with links to favourite songs and more. You are just one click away...

Login with Facebook Login with Google