Log in

One click and you are in

Login with Facebook Login with Google

Why sign up and log in

Guitar Tabs Explorer
Primus chords for Making plans for nigel

Guitar chords

Album: Miscellaneous Debris

Guitar transcribed by CAM.


Here is a more accurate transcription of this Primus
song that was originally done by XTC.
Play along with the song to put this structure together.
h =hammer on
p =pull off
\ =slide down


Repeat this riff as necessary.

Verse:
e--5-5p3--5-5p3--5-5p3--5-5p3--------------------------------
B--3-3----3-3----3-3----3-3----------------------------------
G--4-4----4-4----4-4----4-4----------------------------------
D--5-5----5-5----5-5----5-5----------------------------------
A------------------------------------------------------------
E------------------------------------------------------------


Repeat this riff as necessary.

Chorus:
e--7-7p3--3-5p3--7-7p3--3-5p3---|---2-2--3-3-3-3--4-4--5------
B--3-3----3-3----3-3----3-3-----|---3-3--3-3-3-3--3-3--3------
G--0-0----0-0----0-0----0-0-----|---2-2--2-2-2-2--2-2--2------
D-------------------------------|---0-0--0-0-0-0--0-0--0------
A-------------------------------|-----------------------------
E-------------------------------|-----------------------------

Repeat this riff as necessary.

Bridge:
e--7p3--5-5p3--7p3--5-5p3-----------10-----------------------
B--3----3-3----3----3-3-------------10-10--------------------
G--0----0-0----0----0-0----10-10h11-------10-10h11-----------
D------------------------------------------------------------
A------------------------------------------------------------
E------------------------------------------------------------


Play verse, chorus, then this bridge:
e---------------3-3-3----3-3\----------3--3-3-3-3-----3--3\--
B---------------3-3-3----3-3\----------3--3-3-3-3-----3--3\--
G--9--10--5--------------------9--5--------------------------
D--9--10--5--5---------5-------9--5--5-------------5---------
A--7--8---3--5---------5-------7--3--5-------------5---------
E--0---------3---------3-------0-----3-------------3---------


e--------------3--3-----3--3-3-3-3---------------------------
B--------------3--3-----3--3-3-3-3---------------------------
G--9--10--5--------------------------------------------------
D--9--10--5--5-------5---------------------------------------
A--7--8---3--5-------5---------------------------------------
E--0---------3-------3---------------------------------------


To end the song, play the chorus riff first bridge riffs.

Comments? groundwurk@hotmail.com

Other versions of Making Plans For Nigel

Making plans for nigelTabs

Almost there ...

Sign in to get your own page with links to favourite songs and more. You are just one click away...

Login with Facebook Login with Google