Log in

One click and you are in

Login with Facebook Login with Google

Why sign up and log in

Guitar Tabs Explorer
Primus tabs for Making plans for nigal

Guitar tabs

Primus
Making Plans For Nigal
Tabbed by Justin Bailey tazz_tld@hotmail.com

Fig1
E--------------
B--10-10b9-----
G--------------
D--------------
A--------------
E--------------

Fig2
E------------------
B--8-12-8--8-10-8--
G------------------
D------------------
A------------------
E------------------

Fig3
E-----------------------------------------
B--7777777-8888888-1010101010-121212121212
G-----------------------------------------
D-----------------------------------------
A-----------------------------------------
E-----------------------------------------

Fig4
E----------------------------------------
B--10-10b9---10-10b9---------------------
G---------------------10-10-11---10-10-11
D----------------------------------------
A----------------------------------------
E----------------------------------------

Fig5
E--------------------------------------------------------
B--99999999-101010101010-------------x-x-x-x-12-x-x-x-x-12
G-------------------------1010101010-x-x-x-x-12-x-x-x-x-12
D---------------------------------------------------------
A---------------------------------------------------------
E---------------------------------------------------------

E----------------------------------------------
B--101010101010--999999--x-x-x-x-12-x-x-x-x-12-
G------------------------x-x-x-x-12-x-x-x-x-12-*repeat this part once
D----------------------------------------------
A----------------------------------------------
E----------------------------------------------

Fig1 x 24
Fig2 x 6
Fig3 x 1
Fig4 x 1
Fig1 x 16
Fig2 x 6
Fig3 x 1
Fig5 x 1 with the repeat
Fig2 x 34
Bass Solo
Fig4 x 5 and fade out

Almost there ...

Sign in to get your own page with links to favourite songs and more. You are just one click away...

Login with Facebook Login with Google