Log in

One click and you are in

Login with Facebook Login with Google

Why sign up and log in

Guitar Tabs Explorer
Primus bass tabs for Lee van cleef

Bass tabs with lyrics

-------------------------------------------------------------------------------
               Lee Van Cleef - Primus
-------------------------------------------------------------------------------
Tabbed by: ME
E-mail: austinhansngo@gmail.com

 Hey all, this is my 4th tab on UT, this one is a short tab, because there's
is like basically 4 or 5 different riffs in the song,hopefully this is a bit
more accurate, or just sounds better, but I'll just consider this my version
of it. And also think that the song is easy to figure out what riffs goes
where, so good luck. And I also hope this is a very good tab, it's made by a
16 year old, thought I should share even though it's not necessary. The
triple x's somewhere on here involves 3 fingers pulling them individually,
I don't know how to do it fast yet, but yeah, if you're having trouble
reading it.

(When bending the 4th fret on d string, bend it like not to much, bend it where
it sounds like it's between 4th and 5th.)


Tuning:E-Standard

  s v s s  v s vs v  s   s  v
G|----0---x-----0---0--0--x-----x------0--|
D|--4b-----0h4h5-----4b----0h4h5----------|
A|------5x--------5x----xx--------0h4h5---|
E|----------------------------------------|

  s v s s   s vs vs s  s  s  s  s
G|----0---x-----x---0--0-x--------------------|
D|--4b-----0h4h5-----4b-----------------------|
A|------5---------5-----5--0h5-0h4-0h3-0h2-0--|
E|--------------------------------------------|

  s v s s  v s vs vs s   s  v
G|----0---x-----0---0--0--x-----x------0--|
D|--4b-----0h4h5-----4b----0h4h5----------|
A|------5x--------5x----5x--------0h4h5---|
E|----------------------------------------|

  s v s s  v s vs vs s  s  s  s  s
G|----0---x-----0---0--0-x--------------------|
D|--4b-----0h4h5-----4b-----------------------|
A|------5---------5-----5--0h5-0h4-0h3-0h2-0--|
E|--------------------------------------------|

  svs s s s vs   svs s s  s vs
G|---0-x---x--x---0-x-x-x--0-x---x--x----0-x-xxx---|
D|-------------------------------------------------|
A|----2------------2-x-x----2-------------2-x---x--|
E|--3----3--1--3~---------3----3--1---3~-----------|

  v svs s s vs vs s  s  s  s  s
G|--0--0-x--x--0---0-x--------------------|
D|------2-----------2---------------------|
A|----3---3--2--3~-----0h5-0h4-0h3-0h2-0--|
E|----------------------------------------|

  s v s s  v s vs v  s   s  v svs s s vs vs s  s  s  s  s
G|----0---x-----0---0--0--x-----x------0--0-x--x--0---0-x--------------------|
D|--4b-----0h4h5-----4b----0h4h5-----------2-----------2---------------------|
A|------5x--------5x----xx--------0h4h5--3---3--2--3~-----0h5-0h4-0h3-0h2-0--|
E|---------------------------------------------------------------------------|


| / slide up
| \ slide down
| h hammer-on
| p pull-off
| ~ vibrato
| + harmonic
| x Mute note
| s Pop
| v Pull
| b Bend

Almost there ...

Sign in to get your own page with links to favourite songs and more. You are just one click away...

Login with Facebook Login with Google