Log in

One click and you are in

Login with Facebook Login with Google

Why sign up and log in

Guitar Tabs Explorer
Primus tabs for Last salmon man

Intro

0:00
(Bass intro arranged for guitar)

|-----------------|
|-----------------|
|-----------------|
|-----------------|
|-----------------|
|-10-10-10-8-10-8-|
0:07
(Play the 7 and 9 sixteen times each,
 the 10 twelve times and the 12 four times)

|-----------------|-----------------|
|-----------------|-15-17-----------|
|-7--10--12--9----|-----------------|
|-----------------|-----------------|
|-----------------|-----------------|
|-----------------|-----------------|

Same again for
this bar.
|----------------|---------------------|
|----------------|---------------------|
|-7--10--12------|---------------------|
|----------------|---------------------|
|----------------|---------------------|
|----------------|-10-8-10-5-7-8/13-12-|

Almost there ...

Sign in to get your own page with links to favourite songs and more. You are just one click away...

Login with Facebook Login with Google