Log in

One click and you are in

Login with Facebook Login with Google

Why sign up and log in

Guitar Tabs Explorer
Primus bass tabs for Hats off

Bass tabs

g----------------------------------------------
d-------7--------------------------------------
a---7h9---9-99----------------7----------------
e---------------0h7h9-9 0h7h9----9-0-----------

g----------------------------------------------
d----------7-----------------------------------
a---0h7h9-----9-99------------3-3-4-5----------
e-------------------7h9-99/--------------------

 well that was the main riff ...the intro goes like so....
g-----------------------------
d------7--------------5-------
a--7h9----9p7-----5h7---7p5---
e-------------10------------8-

g-----------------------------
d-----------------------------
a--------------0-0-0-2-2-2----
e--2-2-2-3-3-3----------------

then do what i do....sing like a jack ass and play the fisrt part up there

submitted by nativeguitarman@yahoo.com

Almost there ...

Sign in to get your own page with links to favourite songs and more. You are just one click away...

Login with Facebook Login with Google