Log in

One click and you are in

Login with Facebook Login with Google

Why sign up and log in

Guitar Tabs Explorer
Primus bass tabs for Greet the scared crow

Bass tabs

greet the sacred cow primus antipop taken from their cheezy primus page  This part's harmonics:



  h h h h  h h h h h h
G|--------------------------------|-------------------|
D|-12------12-----12----12----12--|-12h13p12-12h13p12-|
A|---12-12-----12----12----12-----|-------------------|
E|--------------------------------|-------------------|


-just make your ownd escending scale  The heavier part.  (slap & pop)"Line 'em up now..."
G|--------6-7-------------6-7-r--|
D|*-----------------------------*|
A|*-5-x-x-----5h6-x-5h6-5-------*|
E|-------------------------------|

Almost there ...

Sign in to get your own page with links to favourite songs and more. You are just one click away...

Login with Facebook Login with Google