Log in

One click and you are in

Login with Facebook Login with Google

Why sign up and log in

Guitar Tabs Explorer
Primus bass tabs for Electric uncle sam

Bass tabs

INTRO

G----|---|
D-765|---|
A----|---|
E----|-3-|(X15)
Main riff(chorus)

G-9--7-9---7-9--7-9---7-9--7-9---7-9--7-9|
D-9--7-9---7-9--7-9---7-9--7-9---7-9--7-9|
A-7--5-7---5-7--5-7---5-7--5-7---5-7--5-7|
E----------------------------------------|(X2)


Verse(slap and finger it)

G------------------------------------------|
D-----------------765--------------55------|
A-7--5-7--5-7-5-7-----5-7--5-7--55----66-55|
E------------------------------------------|(X3)

G------------------------------------|
D--------------------765-------------|
A-5-7--5-7---5-7-5-7-----5-7--5-7---7|
E------------------------------------|


Chorus

Pre-verse

G----------------------------------|
D----------------------------------|
A-7--5-7--5-7-5-7---7--5-7--5-7-5-7|
E----------------------------------|(X2)


Verse

G------------------------------------------|
D-----------------765--------------55------|
A-7--5-7--5-7-5-7-----5-7--5-7--55----66-55|
E------------------------------------------|

G------------------------------------|
D--------------------765-------------|
A-5-7--5-7---5-7-5-7-----5-7--5-7---7|
E------------------------------------|


Outro

G--------|  G----|
D--------|  D-5-5|
A-7-7-5-7|  A----|
E--------|(X6)E----|

G------------|
D---------5-5|
A-7-7-5-7----|
E------------|(X16)

Almost there ...

Sign in to get your own page with links to favourite songs and more. You are just one click away...

Login with Facebook Login with Google