Log in

One click and you are in

Login with Facebook Login with Google

Why sign up and log in

Guitar Tabs Explorer
Primus bass tabs for Eclectic electric

Bass tabs with lyrics

Tuning: Standard (E A D G)

This song uses delay so it sounds like hes playing the note more than he actually is

<7> means do a harmonic on the 7th fret

~12~ means use vibrato(move the string up and down)on that fret
Intro:


G|-<7>----<7>----<7>----<7>---|.-<7>---7---10-101010--14-141414--------------|
D|----------------------------|------0---------------------------------------|
A|----------------------------|----------------------------------------------|
E|----------------------------|.---------------------------------------------|

G|-<7>---7--10-101010--14-141414--<7>---7--10-101010-14--141414--------------|
D|-----0------------------------------0--------------------------------------|
A|---------------------------------------------------------------------------|
E|---------------------------------------------------------------------------|

G|-<7>---7--10-101010--14-141414--------------------------------------------.|
D|-----0---------------------------------------------------------------------|
A|---------------------------------~12~-----------~12~----~12~----~12~-------|x2
E|--------------------------------------------------------------------------.|


G|--------------------|.----------------------------------------------------.|
D|--------------------|------------------------------------------------------| x2
A|---12\5------5----5-|-555-555-555-555-555-555-555-555-555-555-555-555------|
E|--------------------|.----------------------------------------------------.|


Verse 1:

G|.-<7>---7--10-101010--14-141414--<7>---7--10-101010-14--141414------------.|
D|-----0------------------------------0--------------------------------------|
A|---------------------------------------------------------------------------| x2
E|.-------------------------------------------------------------------------.|

Bring me back again

I'd really rather not be out here on my own


G|-<7>---7--10-101010--14-141414--<7>---7--10-101010-14--141414--------------|
D|-----0------------------------------0--------------------------------------|
A|---------------------------------------------------------------------------|
E|---------------------------------------------------------------------------|


Someone reel me in

I'm drifting ever farther from my home


G|-<7>---7--10-101010--14-141414--<7>---7--10-101010-14--141414---------------------|
D|----0-----------------------------0-----------------------------------------------|
A|--------------------------------------------------------------~12~-~12~-~12~-~12~-|
E|----------------------------------------------------------------------------------|

G|----------------|
D|----------------|
A|---\5--5--5--5--|
E|----------------|


Chorus:


I remember when I was a baby

Gazing in amazement at the sky

Sing it twinkle twinkle little baby

Daddy's gonna learn you to fly


G|.--------5-55------------.|
D|----------------6-66-66---|
A|---4-44-------------------| x4
E|.------------------------.|

Like a comet through the sky

G|--------------------|
D|--------------------|
A|---~5~----------~5~-|
E|--------------------|


Verse 2:

G|.-<7>---7--10-101010--14-141414--<7>---7--10-101010-14--141414------------.|
D|-----0------------------------------0--------------------------------------|
A|---------------------------------------------------------------------------| x2
E|.-------------------------------------------------------------------------.|


Bring me back again

I'd really rather not be out here on my own


G|.-<7>---7--10-101010--14-141414--<7>---7--10-101010-14--141414------------.|
D|-----0------------------------------0--------------------------------------|
A|---------------------------------------------------------------------------| x2
E|.-------------------------------------------------------------------------.|


I'm drifting with the wind

Trying to hold the course that I've been shown


G|-<7>---7--10-101010--14-141414--<7>---7--10-101010-14--141414---------------------|
D|----0-----------------------------0-----------------------------------------------|
A|--------------------------------------------------------------~12~-~12~-~12~-~12~-|
E|----------------------------------------------------------------------------------|

G|----------------|
D|----------------|
A|---\5--5--5--5--|
E|----------------|


Chorus:


I remember when I was a baby

Staring in amazement at the sun

Better shield your eyes now little baby

No one ever said you were the one

No one ever said you were the one

No one ever said you were the one


G|.--------5-55------------.|
D|----------------6-66-6----|
A|---4-44-------------------| x6
E|.------------------------.|

Who can't be blinded by the sun

G|----------------------------|
D|----------------------------|
A|---~5~----------~5~------~5~|
E|----------------------------|

I think I'm blinded by the sun


Bridge:

S = Slapp
T = Palm slap
P = Pluck
x = dead/ghost note

G|.-----------------------.|
D|--------------------x----|
A|-------------------------|x7
E|.----10--10--x---x------.|
    S  S T  S  P


G|-----------x-----------------------x------------------------x----------------------------|
D|-----------------------------------------------------------------------------------------|
A|-----------------------------------------------------------------------------------------|
E|----xx----------x--x--x------xx--------x--x--x-------xx-----------x--x--x----------------|
   SS  P   S T S   SS  P  S T S    SS   P   S T S


G|.-----------------------------------x------------------------x----------.|
D|-------------------------------------------------------------------------|
A|-------------------------------------------------------------------------|x4
E|.-0h10---0h10---0h10---0h10---xx--------x--x--x------xx--------x--x--x--.|
  S   S   S   S   SS  P  S T S   SS  P  S T S


G|------------------------------------------------|
D|------------------------------------------------|
A|------------------------------------------------|
E|-----0h10-------0h10--------0h10-------0h10-----|
    S     S      S     S


I like to taunt, I like to tease


G|-------------------------------------------------|
D|-------------------------------------------------|
A|-------------------------------------------------|
E|-----0h10-------0h10--------0h10-------0h10------|
    S     S      S     S

I'll bring your psyche to its knees


G|-------------------------------------------------|
D|-------------------------------------------------|
A|-------------------------------------------------|
E|-----0h10-------0h10--------0h10-------0h10------|
    S     S      S     S


*Use down strokes on all chords*


Juggling

Sanity is coming to your town

G|--12--12--12--12---11-11--10-10---|
D|--12--12--12--12---11-11--10-10---|
A|--10--10--10--10---9--9---8--8----|
E|----------------------------------|


G|---------------------------------------------------|
D|---------------------------------------------------|
A|---------------------------------------------------|
E|-----0h10-------0h10--------0h10-------0h10--------|
    S     S      S     S

Who gives a damn what you say

G|---------------------------------------------------|
D|---------------------------------------------------|
A|---------------------------------------------------|
E|-----0h10-------0h10--------0h10-------0h10--------|
    S     S      S     S

You're pissing all your dreams away

G|---------------------------------------------------|
D|---------------------------------------------------|
A|---------------------------------------------------|
E|-----0h10-------0h10--------0h10-------0h10--------|
    S     S      S     S

Juggling

Sanity is coming to your town

G|--12--12--12--12---11-11--10-10---|
D|--12--12--12--12---11-11--10-10---|
A|--10--10--10--10---9--9---8--8----|
E|----------------------------------|


G|.----------------------------------------------.|
D|------------------------------------------------|
A|------------------------------------------------|x3
E|.-----0h10-------0h10--------0h10-------0h10---.|


Juggling

Sanity is coming to your

Sanity is coming to your

G|.-12--12--12--12---11-11--10-10--.|
D|--12--12--12--12---11-11--10-10---|
A|--10--10--10--10---9--9---8--8----|x2
E|.--------------------------------.|

Sanity is coming to your town

G|--12--12--12--12---11-11---14--14---7---|
D|--12--12--12--12---11-11---14--14---7---|
A|--10--10--10--10---9--9----12--12---5---|
E|----------------------------------------|


G|--------------------|.-------------------------------------------------------------.|
D|--------------------|---------------------------------------------------------6666--|
A|--------------------|---------------------------------------------------------------|x9
E|---5-55555-55555----|.--55555-55555-55555-55555-55555-55555-55555-55555-55555------.|


Chorus:

I remember when I was a baby

Gazing in amazement at the sky

I remember when I was a baby

Gazing in amazement at the sky


G|.--------5-55------------.|
D|----------------6-66-6----|
A|---4-44-------------------| x4
E|.------------------------.|


Bridge 2:

Pressing onward through the night

Pressing onward towards the light


G|.---------------------------------------------.|
D|--------------------------------------6666-----|
A|-----------------------------------------------|x11
E|.----5-55555-55555-55555-55555-55555----------.|



Outro:

Better shield your eyes now little baby

Better shield your eyes now little baby


G|.--------5-55------------.|
D|----------------6-66-6----|
A|---4-44-------------------| x6
E|.------------------------.|


Pressing onward through the night

Pressing onward towards the light

G|----------------------------|
D|----------------------------|
A|---~12~--------------~5~----|
E|----------------------------|


Alright thats it, its definetly not completly accurate but I think its pretty close. Im open to any

suggestions and constructive criticism to make this tab better. Hopefully it helped anyone trying to learn

If you need any help leave a comment, ill check back on this tab frequently


************************************

| x  Dead note
| g  Grace note
| (n) Ghost note
| h  Hammer-on
| p  Pull-off
| r  Release
| >  Accented note
| t  Tapping
| b  Bend
| br Bend release
| pb Pre-bend
| pbr Pre-bend release
| /  Slide up
| \  Slide down
| ~  Vibrato
| s  Slap
| P  Pop
| PM Palm mute
| TR Trill
| N  Tremolo

************************************

Almost there ...

Sign in to get your own page with links to favourite songs and more. You are just one click away...

Login with Facebook Login with Google