Log in

One click and you are in

Login with Facebook Login with Google

Why sign up and log in

Guitar Tabs Explorer
Prime Sth tabs for Im stupid

Guitar tabs

#-- File created with Instab - http://www.pconline.com/~smcarey/instab.html

Title: I'm Stupid
Album: Underneath the Surface

Didn't see this tab up anywhere, so I tabbed it out myself.   Suggestions,
corrections, comments welcome.

------------------------------------------------------------------------------
--2------2------2-----2------2-----2------------------------------------------
----2------2------------1------1----------------------------------------------
------------------------------------------------------------------------------
------------------------------------------------------------------------------
------------------------------------------------------------------------------

Intro/Riff 1 - Repeat this riff through the into and the verses.

------------------------------------------------------------------------------
------------------------------------------------------------------------------
------------------------------------------------------------------------------
---9---------12---------7---------11--------------------------------------------
---9-(X8)----12-(X8)----7-(X8)----11-(X8)---------------------------------------
---7---------10---------5---------9---------------------------------------------

Chorus - Use this sequence of chords - just strum in quick, even meter

------------------------------------------------------------------------------
------------------------------------------------------------------------------
------------------------------------------------------------------------------
---12---------9---------------------------------------------------------------
---12-(X8)----9-(X8)---(let last one ring)------------------------------------
---10---------7---------------------------------------------------------------
On the last time through the chorus, add this on (after the 11/11/9 chord)

------------------------------------------------------------------------------
------------------------------------------------------------------------------
------------------------------------------------------------------------------
-----4--4----2----7-----------------------------------------------------------
-----4--4----2----7-----------------------------------------------------------
-----2--2----0----5-----------------------------------------------------------

Bridge

Almost there ...

Sign in to get your own page with links to favourite songs and more. You are just one click away...

Login with Facebook Login with Google