Log in

One click and you are in

Login with Facebook Login with Google

Why sign up and log in

Guitar Tabs Explorer
Primal Scream bass tabs for Swastika eyes

Bass tabs

Band: Primal Screa
Album: XTRMNT
Bassist: Man
Comments: This song is a fine example of what a live bas
player can do with a techno tune. I haven't tabbed out th
'jam' that comes at the end of the song. Essentially he i
playing off of the fills he's used during the rest of th
song with some slides thrown in. It's also wide open fo
improv, so shall let you do with it what you will

Verse
G*----------------*----------------
D*----------------*--------3-------
A*5-5-5-5-5-5-5-5-*5-5-5-5---5-3-5-
E*----------------*----------------

G*----------------*----------------
D*----------------*----------------
A*5-5-5-5-5-5-5-5-*5-5-5-5-0-3-3-5-
E*----------------*----------------

Play both riffs one after the other and as many times a
needed


Chorus:     X2        X
G*----------------*----------------
D*----------------*12-12-12-12-12-12-12-12-
A*8-8-8-8-8-8-8-8-*----------------
E*----------------*----------------


Bridge:     X
G*----------------*----------------*----------------
D*----------------*----------------*5-5-5-5-5-5-5-5-
A*3-3-3-3-3-3-3-3-*1-1-1-1-1-1-1-1-*----------------
E*----------------*----------------*----------------


Tabbed by Steven Snide
Peavy_BZ_100@hotmail.co

Almost there ...

Sign in to get your own page with links to favourite songs and more. You are just one click away...

Login with Facebook Login with Google