Log in

One click and you are in

Login with Facebook Login with Google

Why sign up and log in

Guitar Tabs Explorer
Primal Scream bass tabs for Star fruit surf rider

Star Fruit Surf Rider bass tab by Primal Scream

Primal Scream bass tabs for Star fruit surf rider

Bass tabs

Tuning: Standard (E A D G)

Difficulty: Novice


Intro:
G|-------------|------------|-------------|------------|
D|-4---4--4----|------------|-------------|----------3-|
A|----------4-5|-6---6--6-4-|-2---2--1-2-3|-4---4--4---|
E|-------------|------------|-------------|------------|

G|-------------|------------|------------|----------------|
D|-4---4--4----|------------|------------|-4-----------2-3|
A|----------4-5|-6---6--6-4-|-2---2-4---4|---4-4-4-4-4----|
E|-------------|------------|------------|----------------|
Verse 1:
G|----------------|--------------|----------------|--------------|
D|-4-4-4-4-4-4-2--|-2-4--4--2---2|-4-4-4-4-4-4-2--|-2-4--4--4-1--|
A|---------------4|-----------4--|---------------4|-------------4|
E|----------------|--------------|----------------|--------------|

G|------------|------------|------------|----------------|
D|-------4---4|------------|------------|-4-----------2-3|
A|-2---2------|-4---4-4--2-|-------4---4|---4-4-4-4-4----|
E|------------|------------|-4---4------|----------------|


Verse 2:
G|----------------|--------------|----------------|--------------|
D|-4-4-4-4-4-4-2--|-2-4--4--2---2|-4-4-4-4-4-4-2--|-2-4--4--4-1--|
A|---------------4|-----------4--|---------------4|-------------4|
E|----------------|--------------|----------------|--------------|

G|------------|------------|------------|----------------|
D|-------4---4|------------|------------|-4-----------2-3|
A|-2---2------|-4---4-4--2-|-------4---4|---4-4-4-4-4----|
E|------------|------------|-4---4------|----------------|

Interlude:
G|-------------|------------|-------------|------------|
D|-4---4--4----|------------|-------------|----------3-|
A|----------4-5|-6---6--6-4-|-2---2--1-2-3|-4---4--4---|
E|-------------|------------|-------------|------------|

G|-------------|------------|------------|----------------|
D|-4---4--4----|------------|------------|-4--------------|
A|----------4-5|-6---6--6-4-|-2---2-4---4|---4-4-4-4-4-4--|
E|-------------|------------|------------|---------------2|

Verse Last Part:
G|------------|------------|------------|----------------|
D|-------4---4|------------|------------|-4-----------2-3|
A|-2---2------|-4---4-4--2-|-------4---4|---4-4-4-4-4----|
E|------------|------------|-4---4------|----------------|


Outro:
G|----------------|----------------|----------------|----------------|
D|-4-4-4-4-4-4-4-4|----------------|-4-4-4-4-4-4-3-3|---------------0|
A|----------------|-2-2-2-2-2-2-2-2|----------------|-4-4-4-4-4-3-4--|
E|----------------|----------------|----------------|----------------|

G|----------------|----------------|----------------|----------------|
D|-1-1-1-1-1-1----|----------------|----------------|-4-----------2-3|
A|-------------4-4|-2-2-2-2-2-2-1-2|---------4-4-4-4|---4-4-4-4-4----|
E|----------------|----------------|-4-4-4-4--------|----------------|

G|----------------|----------------|----------------|----------------|
D|-4-4-4-4-4-4-4-4|----------------|-4-4-4-4-4-4-4-3|---------------0|
A|----------------|-2-2-2-2-2-2-2-2|----------------|-4-4-4-4-4-3-4--|
E|----------------|----------------|----------------|----------------|

G|----------------|----------------|----------------|----------------|
D|-1-1-1-1-1-1----|----------------|----------------|-4-----------2-3|
A|-------------4-4|-2-2-2-2-2-2-1-2|---------4-4-4-4|---4-4-4-4-4----|
E|----------------|----------------|-4-4-4-4--------|----------------|

G|----------------|----------------|----------------|----------------|
D|-4-4-4-4-4-4-4-4|----------------|-4-4-4-4-4-4-4-3|---------------0|
A|----------------|-2-2-2-2-2-2-2-2|----------------|-4-4-4-4-4-3-4--|
E|----------------|----------------|----------------|----------------|

G|----------------|----------------|----------------|----------------|
D|-1-1-1-1-1-1----|----------------|----------------|-4-----------2-3|
A|-------------4-4|-2-2-2-2-2-2-1-2|---------4-4-4-4|---4-4-4-4-4----|
E|----------------|----------------|-4-4-4-4--------|----------------|

G|----|
D|-4-4|
A|----|
E|----|

Almost there ...

Sign in to get your own page with links to favourite songs and more. You are just one click away...

Login with Facebook Login with Google