Log in

One click and you are in

Login with Facebook Login with Google

Why sign up and log in

Guitar Tabs Explorer
Priestess tabs for Lay down

Guitar tabs

Tabbed by: Karl Schmaltz (karl_schmaltz@hotmail.com)


| /  slide up
| \  slide down
| h  hammer-on
| p  pull-off
| ~  vibrato
| *  harmonic
| x  Mute note
| b  bend

Tuning: Half step down


Main Riff
|--------------------------------------|
|--------------------------------------|
|--------------------------------------|
|--------5-----------7-5---5-----------|
|----------0-0-------------------5-5-7-|
|-0-0-5-7------7-5-7-----7---7-5-3-3-5-|x3

|----------------------------------------------------------------|
|----------------------------------------------------------------|
|----------------------------------------------------------------|
|--------5-----------7-5---5-----------2-2-----2-2-----2-2-----2-|
|----------0-0-------------------5-4-3-2-2-xxx-2-2-xxx-2-2-xxx-2-|
|-0-0-5-7------7-5-7-----7---7-5-3-2-1-0-0-xxx-0-0-xxx-0-0-xxx-0-|

Fill
|---------------|
|---------------|
|---------------|
|---12---9---7--|
|---10---7---5--|
|-0----0---0----|

Verse
|-----------------------------------------------------------|
|-----------------------------------------------------------|
|---------------------------------------12-12-----12-12-----|
|-2-------------------------------------12-12-----12-12-----|
|-2-22-22-22-22-22-22-22-22-22-22-22-22-10-10-----10-10-----|
|-0-00-00-00-00-00-00-00-00-00-00-00-00-------000-------000-|x2
PM  .. .. .. .. .. .. ..  . .. .. .. ..

|-------------------------------------------------------------------|
|-------------------------------------------------------------------|
|-------------------------------------------------------------------|
|-----------------------------------5-----------7-5---5-------------|
|-7-77-77-77-77-77-77-77-7------------0-0-------------------5-7-8-9-|
|-5-55-55-55-55-55-55-55-5--0-0-5-7-------7-5-7-----7---7-5-3-5-6-7-|


Pre-chorus 1
|---------------------------------------|
|---------------------------------------|
|---------------------------------------|
|---------------------------------------|
|-9-99-99-99-99-99-99-99-9-999999999999-|
|-7-77-77-77-77-77-77-77-7-777777777777-|


Chorus
|--------------------------------------------------------------|
|--------------------------------------------------------------|
|--------------------------------------------------------------|
|-2-2\---5-5\---7-77-77-77-7----------------------7-77-77-77-7-|
|-2-2\---5-5\---7-77-77-77-7----------2---------5-7-77-77-77-7-|
|-0-0\---3-3\---5-55-55-55-5--0-0-3-5---3-3-5-7---5-55-55-55-5-|x2

|---------------------------|
|---------------------------|
|---------------------------|
|-1010101010101010-99999999-|
|-1010101010101010-99999999-|
|--8-8-8-8-8-8-8-8-77777777-|


Main Riff (changed a little, not hard to figure out)

Verse


Pre-chorus 2
|--------------------------|
|--------------------------|
|--------------------------|
|--------------------------|
|-9-99-99-99-99-99-99-9-9\-|
|-7-77-77-77-77-77-77-7-7\-|


Chorus


Bridge
|------------------------------------------------|
|------------------------------------------------|
|------------------------------------------------|
|-2~----------------------------------12---9---7-|
|-2~----------------------------------10---7---5-|
|-0~--------------------------------0----0---0---|


Solo (I used a program to seperate the left and right channels, so this should be pretty close)
 Guitar 1
|------------------------------------------------------|
|-----/15b-15-12-15br-12~--15-12-15-15b-10-12~--10p8---|
|-/12-----------------------------------------------9--|
|------------------------------------------------------|
|------------------------------------------------------|
|------------------------------------------------------|
|Guitar 2
|------------------------------------------------------|
|-----/10b-10--8-10br--8~--10-8-10-10b--10p8-----------|
|-/9-----------------------------------------9~--9p7---|
|---------------------------------------------------9--|
|------------------------------------------------------|
|------------------------------------------------------|

 Guitar 1
|---------------------------------------------------17--17----------|
|-----/15b-15-12-15br-12~--15----15-17-15---19v~--19--19--19-17-19v-|
|-/12-------------------------16---------16-------------------------|
|-------------------------------------------------------------------|
|-------------------------------------------------------------------|
|-------------------------------------------------------------------|
|Guitar 2
|---------------------------------------------------10--10----------|
|-----/10b-10--8-10br--8~--10----10-12-10---12v~--12--12--12-10-12v-|
|-/9--------------------------12---------12-------------------------|
|-------------------------------------------------------------------|
|-------------------------------------------------------------------|
|-------------------------------------------------------------------|


Chorus (first part x3, then second part)


Outro
|--------------------------------------|
|--------------------------------------|
|--------------------------------------|
|--------5-----------7-5---5-----------|
|----------0-0-------------------5-5-7-|
|-0-0-5-7------7-5-7-----7---7-5-3-3-5-|

|---------------------------------------------------|
|---------------------------------------------------|
|---------------------------------------------------|
|--------5-----------7-5---5-----------2-2-----2-2\-|
|----------0-0-------------------5-4-3-2-2-xxx-2-2\-|
|-0-0-5-7------7-5-7-----7---7-5-3-2-1-0-0-xxx-0-0\-|

Other versions of Lay Down

Lay down acousticChords

Almost there ...

Sign in to get your own page with links to favourite songs and more. You are just one click away...

Login with Facebook Login with Google