Log in

One click and you are in

Login with Facebook Login with Google

Why sign up and log in

Guitar Tabs Explorer
Priestess tabs for Everything that you are

Guitar tabs

‘Everything That You Are’ By Priestess:


Main Riff X4
E-----------------------------------------|
B-----------------------------------------|
G-5-5-5-5-5-5--5-7------10--8-8-8-8-10----|
D-5-5-5-5-5-5--3-5-10-8-10--8-8-8-8-10----|
A-3-3-3-3-3-3------10-8--8--6-6-6-6--8----|
E-------------------8-6-------------------|

Pre Verse
E---------------------------------------|
B---------------------------------------|
G---------------------------------------|
D---------------------------------------|
A-1-3-3---1-3-3--1-3-3--6----6----6-3---|
E-------------------------6----6--------|


Verse X4
E-----------------------------------------|
B-----------------------------------------|
G-5-5-5-5-5-5--5-7------10--8-8-8-8-10----|
D-5-5-5-5-5-5--3-5-10-8-10--8-8-8-8-10----|
A-3-3-3-3-3-3------10-8--8--6-6-6-6--8----|
E-------------------8-6-------------------|


Chorus X1
E----------------------------------------------------------|
B----------------------------------------------------------|
G----------------------------------------------------------|
D-5-6-8-9-10-10-10-10-10-10-10-10-10-10-10-10--5-6-8-9-10--|
A-5-6-8-9-10-10-10-10-10-10-10-10-10-10-10-10--5-6-8-9-10--|
E-3-4-6-7--8--8--8--8--8--8--8--8--8--8--8--8--3-4-6-7--8--|

Break
E---------------------------------------------------------------------------|
B---------------------------------------------------------------------------|
G---------------------------------------------------------------------------|
D-10-10-10-10-10-10-10-10-10-10-10-10-10-10-10-10-10-10-10-10-10-10-10-10-8-|
A-10-10-10-10-10-10-10-10-10-10-10-10-10-10-10-10-10-10-10-10-10-10-10-10-8-|
E--8--8--8--8--8--8--8--8--8--8--8--8--8--8--8--8--8--8--8--8--8--8--8--8-6-|


Verse X4
E-----------------------------------------|
B-----------------------------------------|
G-5-5-5-5-5-5--5-7------10--8-8-8-8-10----|
D-5-5-5-5-5-5--3-5-10-8-10--8-8-8-8-10----|
A-3-3-3-3-3-3------10-8--8--6-6-6-6--8----|
E-------------------8-6-------------------|


Chorus X1
E----------------------------------------------------------|
B----------------------------------------------------------|
G----------------------------------------------------------|
D-5-6-8-9-10-10-10-10-10-10-10-10-10-10-10-10--5-6-8-9-10--|
A-5-6-8-9-10-10-10-10-10-10-10-10-10-10-10-10--5-6-8-9-10--|
E-3-4-6-7--8--8--8--8--8--8--8--8--8--8--8--8--3-4-6-7--8--|

With Solo X4
E----------------------------------------------------------------------------|
B----------------------------------------------------------------------------|
G----------------------------------------------8-8-8-8-8-8-8-8-8-8-8-8-8-8-8-|
D-10-10-10-10-10-10-10-10-10-10-10-10-10-10-10-8-8-8-8-8-8-8-8-8-8-8-8-8-8-8-|
A-10-10-10-10-10-10-10-10-10-10-10-10-10-10-10-6-6-6-6-6-6-6-6-6-6-6-6-6-6-6-|
E--8--8--8--8--8--8--8--8--8--8--8--8--8--8--8-------------------------------|

E-----------|
B-----------|
G-----------|
D-5-6-8-9---|
A-5-6-8-9---|
E-3-4-6-7---|


Main Riff X1
E-----------------------------------------|
B-----------------------------------------|
G-5-5-5-5-5-5--5-7------10--8-8-8-8-10----|
D-5-5-5-5-5-5--3-5-10-8-10--8-8-8-8-10----|
A-3-3-3-3-3-3------10-8--8--6-6-6-6--8----|
E-------------------8-6-------------------|


Verse X4
E-----------------------------------------|
B-----------------------------------------|
G-5-5-5-5-5-5--5-7------10--8-8-8-8-10----|
D-5-5-5-5-5-5--3-5-10-8-10--8-8-8-8-10----|
A-3-3-3-3-3-3------10-8--8--6-6-6-6--8----|
E-------------------8-6-------------------|


Chorus X7
E----------------------------------------------------------|
B----------------------------------------------------------|
G----------------------------------------------------------|
D-5-6-8-9-10-10-10-10-10-10-10-10-10-10-10-10--5-6-8-9-10--|
A-5-6-8-9-10-10-10-10-10-10-10-10-10-10-10-10--5-6-8-9-10--|
E-3-4-6-7--8--8--8--8--8--8--8--8--8--8--8--8--3-4-6-7--8--|

Almost there ...

Sign in to get your own page with links to favourite songs and more. You are just one click away...

Login with Facebook Login with Google