Log in

One click and you are in

Login with Facebook Login with Google

Why sign up and log in

Guitar Tabs Explorer
Prick bass tabs for Riverhead

Bass tabs with lyrics

Riverhead By Prick

Arranged and TAB'd by Bucky LaDieu <nega@vt.edu>

This is the best I could do with a partial transcription that was
shown to me. "Riverhead" has two 'bass' parts and this is an
arrangement that is close to what I play. The section that is repeated
four times at the end, actually continues underneath the solo until the
song ends. I *strongly* recomend listening to this song several times
before you play it, and of course listen as you play. Standard tuning.
+----------+-------------+-------------+-------------+--------------+
|*--2--2--*|--0h2--------|--0h2--------|--------0h2--|--------5--4--|
|*--------*|-------------|-------------|-------------|--------------|
+----------+-------0--0--+-------0--0--+--0--0-------+--0--0--------+


+--------12h13------+-------+-------------+-------------+--------------+
|---------------14--|*--R--*|--------0h2--|--------0h2--|--------5--4--|
|-------------------|*-----*|-------------|-------------|--------------|
+--0--0-------------+-------+--0--0-------+--0--0-------+--0--0--------+


+-----------+------------+----------------+---------------+
|-----------|------------|----------------|---------------|
|--3-3-3-3--|--3-3-3-3/--|--/15-15-15-15--|--15-15-15-15--|
+-----------+------------+----------------+---------------+


+-----------+------------+----------------+---------------+-----------+
|-----------|------------|----------------|---------------|-----------|
|--3-3-3-3--|--3-3-3-3/--|--/15-15-15-15--|--15-15-15-15--|--7-7-7-7--|
+-----------+------------+----------------+---------------+-----------+

+-------+-------+-----------+-------+-----------+------------+----------------+
|-------|*--R--*|-----------|-------|-----------|------------|----------------|
|-------|*-----*|--7-7-7-7--|-------|--3-3-3-3--|--3-3-3-3/--|--/15-15-15-15--|
+--0-0--+-------+-----------+--0-0--+-----------+------------+----------------+


+---------------+-----------+------------+----------------+---------------+
|---------------|-----------|------------|----------------|---------------|
|--15-15-15-15--|--3-3-3-3--|--3-3-3-3/--|--/15-15-15-15--|--15-15-15-15--|
+---------------+-----------+------------+----------------+---------------+


+--9-11-12-11--+--9-9-11-12-11--+--9-11-12-11--+--9-9-11-12-11--+--/14-14-14-16-18-16\--+
|--------------|----------------|--------------|----------------|-----------------------|
|--------------|----------------|--------------|----------------|-----------------------|
+--------------+----------------+--------------+----------------+-----------------------+


+-------------+-------------+-------------+-------------+-------------+-------------+
|--5----------|-------------|--5----------|-------------|--5----------|-------------|
|----7-7-7-7--|--5h7-7------|----7-7-7-7--|--5h7-7-7-7--|----7-7-7-7--|--5h7-7------|
+-------------+--------0-0--+-------------+-------------+-------------+--------0-0--+


+-------------+---------------+-------------+-------------+-------------+-------------+
|--5----------|---------------|--3----------|-------------|--1----------|-------------|
|----7-7-7-7--|--5h7-7-5h7-7--|----5-5-5-5--|--3h5-5-5-5--|----3-3-3-3--|--1h3-3-3-3--|
+-------------+---------------+-------------+-------------+-------------+-------------+


+-------------+-------------+-------------+---------------+---------+---------+-------+-------+
|-------------|-------------|-------------|---------------|--2-2-2--|--2-2-2--|-------|-------|
|--4----------|-------------|--4----------|---------------|---------|---------|-------|-------|
+----6-6-6-6--+--4h6-6-6-6--+----6-6-6-6--+--4h6-6-4h6-6--+---------+---------+--0h3--+--0h3--+


+-------------+--------------+-------------+-------------+-----------+-----------+
|--5----------|--------------|--5----------|-------------|-----------|-----------|
|----7-7-7-7--|--7--7--7--7--|----7-7-7-7--|--5h7-7-7-7--|-----------|-----------|
+-------------+--------------+-------------+-------------+--0-0-0-0--+--0-0-0-0--+


+-----------+------------+-------------+-----------+-----------+------------+------------+
|-----------|------------|--------0h2--|------5-4--|------0h2--|-------0h2--|-------0h2--|
|-----------|------------|-------------|-----------|-----------|------------|------------|
+--0-0-0-0--+--0-0-0-0\--+--0--0-------+--0-0------+--0-0------+--0-0-------+--0-0-------+


+-----------+-----------+-------------+-----------+-------------+-------------+
|------5-4--|-----------|-------------|-----------|-------------|--5----------|
|-----------|--3-3-3-3--|--3-3-3-3-3--|--3-3-3-3--|--3-3-3-3-3--|----7-7-7-7--|
+--0-0------+-----------+-------------+-----------+-------------+-------------+


+-------------+-------------+-------------+-----------+-------------+-----------+
|-------------|--5----------|-------------|-----------|-------------|-----------|
|--5h7-7-7-7--|----7-7-7-7--|--5h7-7-7-7--|--3-3-3-3--|--3-3-3-3-3--|--3-3-3-3--|
+-------------+-------------+-------------+-----------+-------------+-----------+


+-------------+-----+------------+-----------+-----------+-----------+
|-------------|-----|*-----------|-----------|-----------|-----------|
|--3-3-3-3-3--|--3--|*-----------|-----------|-----------|-----------|
+-------------+-----+---5-5-5-5--+--5-5-5-5--+--7-7-7-7--+--7-7-7-7--+

                        4
+-----------+-----------+-----------+------------+--7h9-7/--+--0-------0------+
|-----------|-----------|-----------|-----------*|----------|----2-2-2---2-2--|
|--4-4-4-4--|--4-4-4-4--|--6-6-6-6--|--6-6-6-6--*|----------|-----------------|
+-----------+-----------+-----------+------------+----------+-----------------+


+--7h9-7/--+--7h9-7/--+--0-------0------+--7h9-7/--+-------+--7h9-7/--+--0-------0------+
|----------|----------|----2-2-2---2-2--|----------|--6-7--|----------|----2-2-2---2-2--|
|----------|----------|-----------------|----------|-------|----------|-----------------|
+----------+----------+-----------------+----------+-------+----------+-----------------+


+--7h9--7/--+--7h9--7/--+--0-------0------+--7h9-7/--+--------++
|-----------|-----------|----2-2-2---2-2--|----------|--------||
|-----------|-----------|-----------------|----------|--6--7--||
+-----------+-----------|-----------------+----------+--------++


        Created using the Bass Tab Creator
   __     by Mario D'Alessio (motcid!marble!dalessio)
  +|oo|+
  +|oo|+    Notes: w = Whole h = Half q = Quarter
   ||         e = 8th  s = 16th t = 32nd x = 64th
   ||
   ||         Capital durations are dotted notes
   ||          (equal to 1.5 times the duration value)
   ||
   ||       #
   ||     +----+          +----+
 _ || _   |*--*+ = MEASURE    |4:--| = TIME
 \\_||_//   |*--*+  REPEATS    |4:--|  SIGNATURES
  | [] |    +----+  (#=Num Repeats) +----+
  | || |
 / [] \   + = TIE     ^ = TRIPLET      > = BEND
 \______/   H = HAMMER ON  \ = SLIDE TO FRET   R = Rest
        P = PULL OFF  \X = SLIDE TO NOWHERE ~ = Trill

Almost there ...

Sign in to get your own page with links to favourite songs and more. You are just one click away...

Login with Facebook Login with Google